Oops, an error
Loading. Please wait.

Eso Espero drums

37 views 1 this week
no commentswrite comment
1 2 3 4 5
3 more votes to show rating
add to favorites
×
Save as Personal and add changes to this tab that will be seen only by you. Learn more ›
×
You can save this tab as Personal to edit and correct it or add notes. All changes will be seen only by you. Learn more »
launch autoscroll
font size
0
reset
guitar tuner
edit
Autoscroll
slow
fast
+/-
esc
set tempo
stop
 C=Crash
 r=Ride
HH=HitHat   (x=HitHat cerrado)
            (X=HitHat medio abierto)
 R=Redoblante
T2=Tom 2
T3=Chancha
 B=Bombo
-------------------------------------------------------
Intro:
 C=-0-----0--------------------------------------------
HH=-------------x--x--x--x--x--x--x--x--x--x--x--x--x--
 R=-0-----0--------------------------------------------
T2=----------------0-----0-----0-----0-----0-----0-----
T3=----------------------------------------------------
 B=-0-----0-----0-----0-----0-----0-----0-----0-----0-- 

 C=-0------------------------------------------------------
HH=----x--x--x--x--x--x--x--x--x--x--x--x--x--x--x---------
 R=-0-----0-----0-----0-----0-----0-----0-----0--0-0---0-0-
T2=-------------------------------------------------0-0----
T3=----------------------------------------------0-0---0-0-
 B=----0-----0-----0-----0-----0-----0-----0---------------

Verso:
    Y eso que es tan facil no me gusta dudo (NO!)
    Tengo mala base si lo toco cae a cero
    Se que da patada pero igual meto los dedos
    Se que es la carnada y me tiento a morder
         EN ESTA PARTE SE TOCA ESTO:
 C=-------------------------------------------X-------
 r=--x----x-----x----x----x----x----x----x--x--------- 
 R=----0----0-----0----0-----0----0-----0-----0-------
T3=------------ooo--------ooo--------ooo--------------
 B=-0----0----0-----0----0----0----0-----0--0---------

Pre-Estribillo:( la parte de 'Sé la caida es dura...')

HH=-X-X--0--X-X--0--X-X--0--X-X--0--X-X--0--X-X--0-


Estribillo:('Eso espero!')

 C:-X---------------------------X------X---------------
HH:----x--x--x--x--x--x--x--xx-----xx-----x--x--x--x---
 R:----o-----o-----o-----o------0------0-----o-----o---
 B:-o-----o-----o-----o-----oo-----oo-----o-----o------

  EL RESTO ES TODO IGUAL... REPETIR: Verso
                                     Pre-Estribillo
                                     Estribillo
                             Pre-estribillo (en el solo de bajo)
                                     Estribillo

Chau DALE!    _|'PALO'|_
si tenes alguna duda
Mail=andate_a_wilde@
ICQ#=114318111
AGUANTE 'A PEDAL...'
[]D /-\ []_ 0

            
            
Suggest correction
Creating personal tab
Creating personal tab
You can edit any tab online and save it as your Personal.

You can edit, replace or remove any tab part or add personal notes – all changes will be seen only by you.

Personal tabs can be accessed anytime from any device, even offline.
Learn more »
Give kudos to tab author, rate the tab!
1 2 3 4 5
comments
print report bad tab
guest
Wanna post a correction for this tab? Suggest correction