Oops, an error
Loading. Please wait.

Hay Casi Un Metro Al Agua tab

version 2
version 2

Whole song

22 views 1 this week
no commentswrite comment
1 2 3 4 5
3 more votes to show rating
add to favorites
×
Save as Personal and add changes to this tab that will be seen only by you. Learn more ›
×
You can save this tab as Personal to edit and correct it or add notes. All changes will be seen only by you. Learn more »
launch autoscroll
font size
0
reset
how to read this tab
guitar tuner
edit
Autoscroll
slow
fast
+/-
esc
set tempo
stop
Afinación Std

Listado de Acordes
    G    D/F#  Aadd4  Gm6  Gmaj7  Dmaj7/A
e|--3-----X------X-----0-----2-------2-----------------
b|--3-----3------X-----3-----0-------2-----------------
g|--0-----2------X-----3-----0-------2-----------------
d|--0-----0------0-----0-----0-------0-----------------
a|--2-----0------4-----X-----X-------0-----------------
E|--3-----2------5-----3-----3-------X-----------------

Riff principal
e|--------------------------------------------------3--
b|--------------------------------------------------3--
g|------------------------------------------0--0----0--
d|-----0---------------0-----0---------0----0--0--0-0--
a|-------------------------------4-------4-------------
E|-3------3s10-X---0-2---2s5---5----5-------3--3--3----

Pre-Estribillo
e|--------------------------------------------------3--
b|--------------------------------------------------3--
g|------------------------------------------0--0----0--
d|-----0---------------0-----0---------0----0--0--0-0--
a|-------------------------------4-------4-------------
E|-3------3s10-X---0-2---2s5---5----5-------3--3--3----

s: slide
X: muteada (pero con la mano izquierda)
Nota: En realidad no se como tabular ese slide muteado
que se escucha, es cuestion de practicarlo y sale facil.

Intro: Riff Principal x 4

Versos: Riff principal
Hay casi un metro al agua y un mar repleto.
Balcón o barco ventana me lleva lejos.
Se te apareció, te sacudió y quiere contarte esto.
G               D/F#       Aadd4    G
Se te apareció, te sacudió y quiere...

Pre-Estribillo:
Riff principal x 1
Gm6...

Estribillo:
Gmaj7       Gm6         Dmaj7/A  Gmaj7
Hey, miró, escucho   y   escucho que
        Gm6     Dmaj7/A  Gmaj7
todo es tuyo,   mío   y  que...
     Gm6       Dmaj7/A  Gmaj7
casi huyo   y   huyo de qué
Dmaj7/A   Gmaj7     Dmaj7/A   Gmaj7
huyo  de  qué...    huyo  de  qué...


Riff principal x 2

Hay casi todo y nada, que simple es esto.
Acá los cuentos de hadas se vuelven ciertos.
Se te apareció, te sacudió y quiere contarte eso.
G               D/F#       Aadd4    G
Se te apareció, te sacudió y quiere...

Pre-Estribillo
Estribillo
Repite 1ra estrofa + Estribillo

            
            
Suggest correction
Creating personal tab
Creating personal tab
You can edit any tab online and save it as your Personal.

You can edit, replace or remove any tab part or add personal notes – all changes will be seen only by you.

Personal tabs can be accessed anytime from any device, even offline.
Learn more »
Give kudos to tab author, rate the tab!
1 2 3 4 5
comments
print report bad tab
guest
Wanna post a correction for this tab? Suggest correction