Oops, an error
Loading. Please wait.

Juego Sagrado tab

29 views 1 this week
no commentswrite comment
1 2 3 4 5
3 more votes to show rating
add to favorites
×
Save as Personal and add changes to this tab that will be seen only by you. Learn more ›
×
You can save this tab as Personal to edit and correct it or add notes. All changes will be seen only by you. Learn more »
launch autoscroll
font size
0
reset
how to read this tab
guitar tuner
edit
Autoscroll
slow
fast
+/-
esc
set tempo
stop
Acá les traigo otro tema del ultimo disco de catupecu
(que por cierto esta buenísimo!!)

Juego Sagrado

intro:

E-----------------------------------------------
B-----------------------------------------------
G-----------------------------------------------
D---------------------4-------------------------
A---4-4---6-7-------4---------------------------
E--------------7-7-------4-4---4-6-7--6~--------


E-----------------------------------------------
B-----------------------------------------------
G-----------------------------------------------
D---------------------4-------------------------
A---4---6-7---------4---------------------------
E--------------7-7-------4-4---4-6-7---7/11-----


E-----------------------------------------------
B-----------------------------------------------
G-----------------------------------------------
D-------------------4---------------------------
A---4---6-7-------4-----------------------------
E------------7-7-------4-4---4-6-7--6~----------


E-----------------------------------------------
B-----------------------------------------------
G-----------------------------------------------
D-------------------------5-6-8-9-9-------------
A-------------------7-6-------------------------
E---/9-9-9-9-7-6-7------------------------------


base

E-----------------------------------------------
B-----------------------------------------------
G-----------------------------------------------
D--------------------4--------------------------
A----4---6-7-------4----------------------------
E-------------7-7-------4-4---4-6-7--6~---------

Un fruto de penas atado a otro tiempo
fiel a lo que fuera dió todo y se fue
A puerta cerrada o cielo abierto,
sequé las venas y volví a nacer.

Soñando sin noche, duermo despierto
dispuesto a todo perderlo quiero tener
Y muerdo una nueva costumbre,
adicto a comienzos sin florecer
Fuerza en los labios, dientes crujiendo
nuevo conjuro muerdo sobre piel.


Estribillo

     B      A#    B        B      A#  G#   A# B
E------------------------------------------------------
B------------------------------------------------------
G------------------------------------------------------
D---9-9-9-9-8--9--9--9-----9-9-9-9-8--6--6--8-9--------
A---9-9-9-9-8--9--9--9-----9-9-9-9-8--6--6--8-9--------
E---7-7-7-7-6--7--7--7-----7-7-7-7-6--4--4--6-7--------


B          A# B
Bebí tu fuego despacio
B              A# G#   A# B
volviste el juego sagrado.


     B      A#    B        B      A#  G#   A# B  C#  A#  D#   C#  B  C#
E-------------------------------------------------------------------------
B-------------------------------------------------------------------------
G-------------------------------------------------------------------------
D---9-9-9-9-8--9--9--9-----9-9-9-9-8--6--6--8-9--11--8---13---11--9---11--
A---9-9-9-9-8--9--9--9-----9-9-9-9-8--6--6--8-9--11--8---13---11--9---11--
E---7-7-7-7-6--7--7--7-----7-7-7-7-6--4--4--6-7--9---6---11---9---7---9---


B          A# B
Bebí tu fuego despacio
B              A# G#   A#  B  C#  A#  D#  C#   B  C#
volviste el juego   oh  oh  oh  oh  oh  oh


1:49

E-----------------------------------------------
B-----------------------------------------------
G-----------------------------------------------
D---------------------4-------------------------
A---4---6-7---------4---------------------------
E--------------7-7-------4-4---4-6-7--7/3-------


1:54

E---------------------------- > ---- > - < ----- > ---------
B---------------------------- > ---- > - < ----- > ---------
G----------------------------13-----13--13-----(11)---------
D----------------------------13-----13--13-----(11)---------
A-------------------7-6------11-----11--11-----(9) ---------
E---/9-9-9-9-7-6-7----------- > ---- > - < ----- > ---------


Rasgueo: Hacia Abajo :>           dejar sonar: ( )
         Hacia Arriba:<


1:59

E-------------------------------------------------------
B-------------------------------------------------------
G-------------------------------------------------------
D-------------------------------------------------------
A-------------------7-6------------------9--6/----------
E---/9-9-9-9-7-6-7-------4-6-7---6/7--------------------


2:05

E-------------------------------------------------------
B-------------------------------------------------------
G-------------------------------------------------------
D-------------------------------------------------------
A-------------------7-6--------6---6--6p4h6-------------
E---/9-9-9-9-7-6-7--------4h6---------------------------


2:10

E-------------------------------------------------------
B-------------------------------------------------------
G-------------------------------------------------------
D-------------------------5/6-8/9-9---------------------
A-------------------7-6---------------------------------
E---/9-9-9-9-7-6-7--------------------------------------


2:14

base

E-----------------------------------------------
B-----------------------------------------------
G-----------------------------------------------
D--------------------4--------------------------
A----4---6-7-------4----------------------------
E-------------7-7-------4-4---4-6-7-6~----------


Caras o cruces, suerte que encuentro
o me ha encontrado o simplemente fue
Vino de la nada, vino festejo
La suerte echada bienvenido ser.

E-----------------------------------------------
B-----------------------------------------------
G-----------------------------------------------
D---------------------4-------------------------
A---4---6-7---------4---------------------------
E--------------7-7-------4-4---4-6-7/11-7-------

Base

E-----------------------------------------------
B-----------------------------------------------
G-----------------------------------------------
D--------------------4--------------------------
A----4---6-7-------4----------------------------
E-------------7-7-------4-4---4-6-7-6~----------


Y escucho un fuerte derrumbe,
sonidos que empiezo a reconocer
Logro un estado, me desconcierto
nuevo conjuro muerdo sobre piel.


Estribillo

     B      A#    B        B      A#  G#   A# B
E------------------------------------------------------
B------------------------------------------------------
G------------------------------------------------------
D---9-9-9-9-8--9--9--9-----9-9-9-9-8--6--6--8-9--------
A---9-9-9-9-8--9--9--9-----9-9-9-9-8--6--6--8-9--------
E---7-7-7-7-6--7--7--7-----7-7-7-7-6--4--4--6-7--------

B          A# B
Bebí tu fuego despacio
B              A# G#   A# B
volviste el juego sagrado.


B          A# B
Bebí tu fuego despacio
B              A# G#   A# B
volviste el juego sagrado.


B          A# B
Bebí tu fuego despacio
B              A# G#   A# B
volviste el juego sagrado.


B          A# B
Bebí tu fuego despacio
B              A# G#   A#  B  (      Silencio      )
volviste el juego   oh  oh  oh  oh  oh  oh


Saludos para todos los que les gusta Catupecu
y para los que no.... también.

gonzalito_m22@
Suggest correction
Creating personal tab
Creating personal tab
You can edit any tab online and save it as your Personal.

You can edit, replace or remove any tab part or add personal notes – all changes will be seen only by you.

Personal tabs can be accessed anytime from any device, even offline.
Learn more »
Give kudos to tab author, rate the tab!
1 2 3 4 5
comments
print report bad tab
guest
Wanna post a correction for this tab? Suggest correction