Oops, an error
Loading. Please wait.

Mil Voces Finas bass

24 views 1 this week
no commentswrite comment
1 2 3 4 5
3 more votes to show rating
add to favorites
×
Save as Personal and add changes to this tab that will be seen only by you. Learn more ›
×
You can save this tab as Personal to edit and correct it or add notes. All changes will be seen only by you. Learn more »
launch autoscroll
font size
0
reset
guitar tuner
edit
Autoscroll
slow
fast
+/-
esc
set tempo
stop
INTRO: guitarra

riff 1
1)---------------------------|
2)---------------------------|
3)--2-2-2-2--2-2-3--2-2-3-2--|           
4)---------------------------|

riff 1:
mil voces finas dan por hecho las 
manos marcan el final, no se q hay
del otro lado, las duda el como el mal

riff 2
1)---------------------------|
2)---------------------------|
3)--4-4-4-4--4-4-5--2-2-5-2--|
4)---------------------------|

repite riff 1:

despues hay un corte que hace esto:
1)---------------------------------|
2)---------------------------------|
3)------------------------4-4-4-4--|
4)--0-4-5-2--2-0-4-5-2-0-----------|

1)---------------------------------------|
2)---------------------------------------|
3)------------------------5555555555555--|
4)--0-4-5-2--2-0-4-5-2-0-----------------|

riff 1
el dolor del q busca y no encuentra, el temor
hablar de miseria, la razon q viva al costado
el instinto indomable suelto sin riendas

riff 2
1)---------------------------|
2)---------------------------|
3)--4-4-4-4--4-4-5--2-2-5-2--|
4)---------------------------|

repite riff 1 hasta un corte q 
es mas o menos asi:

1)--------------------------------------------|
2)--------------------------------------------|
3)--4-7--6-4-3--0-4-5-3-0--3-3--0-3-4-4--3-2--|         
4)--------------------------------------------|

1)-----------------------------|
2)-----------------------------|
3)--0-0-3-4-5-3---2-2-4-5-6-4--|
4)-----------------------------|

esto se repite hasta el final:
1)----------------------------------|
2)----------------------------------|
3)--55555--44444--333--0-0-3-4-5-3--|
4)----------------------------------|
repetir muchas veces

no es un tab dificil de sacarpero si alguien la saca escibala
un saludo a catupecu y a divididos!!!

            
            
Suggest correction
Creating personal tab
Creating personal tab
You can edit any tab online and save it as your Personal.

You can edit, replace or remove any tab part or add personal notes – all changes will be seen only by you.

Personal tabs can be accessed anytime from any device, even offline.
Learn more »
Give kudos to tab author, rate the tab!
1 2 3 4 5
comments
print report bad tab
guest
Wanna post a correction for this tab? Suggest correction