Oops, an error
Loading. Please wait.

Origen Extremo tab

10 views 1 this week
no commentswrite comment
1 2 3 4 5
3 more votes to show rating
add to favorites
×
Save as Personal and add changes to this tab that will be seen only by you. Learn more ›
×
You can save this tab as Personal to edit and correct it or add notes. All changes will be seen only by you. Learn more »
launch autoscroll
font size
0
reset
how to read this tab
guitar tuner
edit
Autoscroll
slow
fast
+/-
esc
set tempo
stop
Catupecu Machu
Cuadros dentro de cuadros      
Origen Extremo
Tunning: EADGBe
Guitarrista: Gabriel Ruiz Diaz


Intro (no se toca nada, pero a la bata se la puede acompañar con un riffteo como el siguiente):

e|-----x--|
B|-----x--|
G|-----x--|   x8
D|--x-----|
A|--x-----|
E|--x-----|

Verso:
(Pierdo razón, justo a tiempo):
e|------------|---------------------|------------|
B|------------|---------------------|------------|
G|------------|---------------------|------------|
D|------------|---------------------|------------|
A|------------|----------------4----|------------|
E|-6--4--2--4-|-6--4--2--4--6-----6-|-6--4--2--4-|

('Soy la vena, la sangre, el corazón latiendo):
e|-----------------|
B|-----------------|
G|-----------------|
D|-----------------|
A|--4--------------|
E|-----6--4--2--4--|

(Sin darme entraba en tierras lisas, sin riesgo sin furia, con gente sin prisa)
[Esto se repite en todas los versos]:

e|---------------------|
B|---------------------|
G|---------------------|  x4
D|---------------------|
A|---------------------|
E|--6^4-6^4-6^4-6^4-6--|

(En medio del sonido me sumerjo y descubro nuevos ruidos, sonidos demensiles se convierten en vampiros)
    G5      A5      A#5       C5
|-------------------------------------|
|-------------------------------------|
|-------------------------------------|
|-5-5-5-5-7-7-7-7-8-8-8-8-10-10-10-10-|
|-5-5-5-5-7-7-7-7-8-8-8-8-8--8--8--8--|
|-3-3-3-3-5-5-5-5-6-6-6-6-8--8--8--8--|
    G5              A5
(Me atrapan en sus brazos) (y pierdo el control)

[Intro]

Pre-coro:
(El pre-coro es en teclado, o sea que no se toca nada en esta parte).

[Intro]

Final(opcional):Riffteo.

Para vos catupequera psicopata (para las dos que ya saben quien son). Un besote.
Suggest correction
Creating personal tab
Creating personal tab
You can edit any tab online and save it as your Personal.

You can edit, replace or remove any tab part or add personal notes – all changes will be seen only by you.

Personal tabs can be accessed anytime from any device, even offline.
Learn more »
Give kudos to tab author, rate the tab!
1 2 3 4 5
comments
print report bad tab
guest
Wanna post a correction for this tab? Suggest correction