Oops, an error
Loading. Please wait.

Seguir Viviendo Sin Tu Amor bass

108 views 1 this week
no commentswrite comment
1 2 3 4 5
3 more votes to show rating
add to favorites
×
Save as Personal and add changes to this tab that will be seen only by you. Learn more ›
×
You can save this tab as Personal to edit and correct it or add notes. All changes will be seen only by you. Learn more »
launch autoscroll
font size
0
reset
guitar tuner
edit
Autoscroll
slow
fast
+/-
esc
set tempo
stop
,,,es un juego de octabas con septimas, mas facil de lo q parece
,,,,, disfutenlo


escala: B, G#m

tempo: 120
----------------------------------------------------------------


                  SEGUIR VIVIENDO SIN TU AMOR
                          (cover)


Letra de LUIS ALBERTO ESPINETTA                 Musica de CATUPECU MACHU

Intro:-|


  +   +   +   +
G|----------------|
D|----------------|
A|----------------|
E|----------------|

---                                                      ___
  B                 G#m               E                     |
  +   +   +   +     +   +   +   +     +   +   +   +         |
G|----4-4---3-3-4-||----6-6---4-4-6-||----2-2---1-1-2-||    |
D|----------------O|----------------O|----------------O|    |
A|2~~~~~~~~~~~~~~~O|----------------O|----------------O|    |
E|----------------||4~~~~~~~~~~~~~~~||0~~~~~~~~~~~~~~~||    |
                                                            |
  |   | |   | | |   |   | |   | | |   |   | |   | | |       |
  |   | |   | | |   |   | |   | | |   |   | |   | | |       |
  |   - |   - ---   |   - |   - ---   |   - |   - ---       |
                                                            |
                                                            |
  F#               F#                                       |
  +   +   +   +    +    +   +   +                           |
G|----------------|-----------------|                       |
D|----------------|--24(4)~~~~~~~~~~|                       |
A|----------------|24---------------|                       |
E|2-----2-----246-|-----------------|                    ___|x2

  |     |     |||  |||| |
  |     |     --|  ---- |
  |.    |.    ---  ---- O.
                       /

VERSO:
                                                         ___
  B                 G#m               E                     |
  +   +   +   +     +   +   +   +     +   +   +   +         |
G|----4~~~~~~~~~~~||----6~~~~~~~~~~~||----------------||    |
D|----------------O|----------------O|------2---------O|    |
A|2-----2---1-1-2-O|----------------O|----2-----2-----O|    |
E|----------------||4-----4---2-2-4-||0-----------0---||    |
                                                            |
  |   | |   | | |   |   | |   | | |   |   | |   | |         |
  |   | |   | | |   |   | |   | | |   |   | |   | |         |
  |   - |   - ---   |   - |   - ---   |   - |   - |         |
                                                            |
                                                            |
  F#               F#                                       |
  +   +   +   +    +   +   +   +                            |
||----------------|----------------|                        |
O|----------------|--24~~~~4~~~4~~~|                        |
O|----------------|24--------------|                        |
||2-----2-----246-|----------------|                     ___|X2

 |     |     |||  |||||   |   |
 |     |     --|  ----|   |   |
 |.    |.    ---  ----|   |   |


---

ESTRIBILLO:

  D#m               G#m               D#m
  +   +   +   +     +   +   +   +     +   +   +   +
G|----------------||--------------8-|(8)6-----6-------|
D|----------------O|----------------| ----9-6-----9---|
A|6-6-6-6-6-6-6-6-O|----------------| ----------------|
E|----------------||4-4-4-4-4-4-4---| ----------------|

  | | | | | | | |   | | | | | | | |   | | | | |   |
  | | | | | | | |   | | | | | | | |   | | | | |   |
  --- --- --- ---   --- --- --- ---   --- --- |   |
                                   _/
 1
  C#m               E                F#
  +   +   +   +     +   +   +   +    +   +   +   +
G|----------------||----------------|----------------|
D|----------------O|2-2-2-2-2-2-2-2-|4---------------|
A|4-4-4-4-4-4-4-4-O|----------------|----------------|
E|----------------||----------------|----------------|

  | | | | | | | |   | | | | | | | |  |
  | | | | | | | |   | | | | | | | |  |     ---.
  --- --- --- ---   --- --- --- ---  |

-----------------------------------------------------------------------

 2  (Este es un arreglo personal del 5,6,7,8, compas del estribillo)
  C#m              C#m              E                F#
  +   +   +   +    +   +   +   +    +   +   +   +    +   +   +   +
G|----------------|--------4--6-4--|4-6-8-9-8---8-9-|11--------------| *
D|----------------|----4-6--------6|-----------9----|----------------| *
A|4-4-4-4-4-4-4-4-|4-6-------------|----------------|----------------| *
E|----------------|----------------|----------------|----------------| *
                                                                       *
  | | | | | | | |  | | | | |  | | | | | | | |  || |  |
  | | | | | | | |  | | | | |. | | - | | | | |. -| |  |      ---.
  --- --- --- ---  --- --- ---- --- --- --- -------  |

-----------------------------------------------------------------------

VERSO 2:(igual al verso 1, pero sin repeticion)

SOLO: (violin y guitarra)  (igual q en la intro)


            _____ _____  ___
G|  | |  |   |   |   | |   |
D|  | |  |   |   |___| |   |
A|  | |  |   |   |    |   |
E|  | |   |   |   |    |___|  x2


---

ESTRIBILLO 2: (igual al estribillo 1)

---

VERSO 2: (igual al verso 2)

INTRO:

                       ------------------------


SIMBOLOGIA:

    REDONDA       | BLANCA         | NEGRA
   :(4 tiempos)   |:(2  tiempos)   |:(1   tiempo)
  O (1 compas )   O (1/2 compas)   | (1/4 compas)


  | CORCHEA         | SEMICORCHEA    - FUSA
  |:(1/2  tiempo)   -:(1/4  tiempo)  -:(1/8  tiempo)
  - (1/8  compas)   - (1/16 compas)  - (1/32 compas)


    PUNTILLO                         |  CORCHEA CON PUNTILLO
  .:(aumenta un 50% el valor d) EJ_  |.:(3/4  tiempo)
    (la nota a la q este unida)      -


  +   +   +   +
G|----------------||
D|----------------O| * REPITE COMPAS...
A|----------------O|
E|----------------||

                       -------------------------

los signos + marcan cada tiempo dentro del compas para q c puedan
guiar mejor mucha suerte y ya saben cualkier duda,
 correcion manden mail
...marco_keso@

            
            
Suggest correction
Creating personal tab
Creating personal tab
You can edit any tab online and save it as your Personal.

You can edit, replace or remove any tab part or add personal notes – all changes will be seen only by you.

Personal tabs can be accessed anytime from any device, even offline.
Learn more »
Give kudos to tab author, rate the tab!
1 2 3 4 5
comments
print report bad tab
guest
Wanna post a correction for this tab? Suggest correction