Oops, an error
Loading. Please wait.

Seguir Viviendo Sin Tu Amor tab

version 1
version 1

Whole song

259 views 1 this week
no commentswrite comment
1 2 3 4 5
3 more votes to show rating
add to favorites
×
Save as Personal and add changes to this tab that will be seen only by you. Learn more ›
×
You can save this tab as Personal to edit and correct it or add notes. All changes will be seen only by you. Learn more »
launch autoscroll
font size
0
reset
how to read this tab
guitar tuner
edit
Autoscroll
slow
fast
+/-
esc
set tempo
stop
INTRO:

               B                     G#m
||----6/7-------------||----6/7------------||
||--4------7-5-7~-----||--4------7-5-4~----||
||--------------------||-------------------||
||--------------------||-------------------||
||--------------------||-------------------||
||--------------------||-------------------||
               E                    F#
||----6/7-------------||----------------------------------||
||--4------7-5-9~-----||--4-5-7-5-4-7-5-5-4-4-2-2-0-7~----||
||--------------------||----------------------------------||
||--------------------||----------------------------------||
||--------------------||----------------------------------||
||--------------------||----------------------------------||
               B                     G#m
||----6/7-------------||----6/7--7-6-7-6-7-11~------------||
||--4------7-5-7~-----||--4-------------------------------||
||--------------------||----------------------------------||
||--------------------||----------------------------------||
||--------------------||----------------------------------||
||--------------------||----------------------------------||
               E                    F#
||----6/7-------------||----------------------------------||
||--4------7-5-9~-----||--4-5-7-5-4-7-5-5-4-4-2-2-0-7~----||
||--------------------||----------------------------------||
||--------------------||----------------------------------||
||--------------------||----------------------------------||
||--------------------||----------------------------------||


                   B
Si a tu corazón yo llego igual
                  G#m
Todo siempre se podrá elegir
                     E
No me escribas la pared
                    F#
Sólo quiero estar entre tu piel

Y si acaso no brillara el sol
Y quedara yo atrapado aquí
No vería la razón
De seguir viviendo sin tu amor


D#
Y hoy que enloquecido vuelvo
   G#m
Buscando tu querer
   C#m
No queda más que viento  oh oh
    E                     F#
No queda más que viento


Y si acaso no brillara el sol
Y quedara yo atrapado aquí
No vería la razón
De seguir viviendo sin tu amor   ohh


SOLO con acordes de Intro


Y hoy que enloquecido vuelvo
Buscando tu querer
No queda más que viento
No queda más que viento

Y si acaso no brillara el sol
Y quedara yo atrapado aquí
No vería la razón
De seguir viviendo sin tu amor   ohh

INTRO

No vería la razón
De seguir viviendo sin tu amor

F#

            
            
Suggest correction
Creating personal tab
Creating personal tab
You can edit any tab online and save it as your Personal.

You can edit, replace or remove any tab part or add personal notes – all changes will be seen only by you.

Personal tabs can be accessed anytime from any device, even offline.
Learn more »
Give kudos to tab author, rate the tab!
1 2 3 4 5
comments
print report bad tab
guest
Wanna post a correction for this tab? Suggest correction