Oops, an error
Loading. Please wait.

Seguir Viviendo Sin Tu Amor tab

version 2
version 2

Whole song

630 views 3 this week
no commentswrite comment
1 2 3 4 5
3 more votes to show rating
add to favorites
×
Save as Personal and add changes to this tab that will be seen only by you. Learn more ›
×
You can save this tab as Personal to edit and correct it or add notes. All changes will be seen only by you. Learn more »
launch autoscroll
font size
0
reset
how to read this tab
guitar tuner
edit
Autoscroll
slow
fast
+/-
esc
set tempo
stop
Seguir viviendo sin tu amor:

Las versiones que encontré de este tema por
Catupecu (hermoso tema de Spinetta) están en Si,
acá dejo la versión de spinetta en Do, con un punteo
de guitarra, violín en la de Catupecu,
básicamente el tema que anda sonando por las radios
no estoy seguro de que este en Si, aunque tampoco en Do,
igual vean que les parece, mal no suena


Intro 1º
            C     C2       C   C2    C      Am
e----7-8-------|----7-8------||-----7-8-----------
B--5----8-6-8--|--5----8-6-8-||---5-----8-6-5-----
G--------------|-------------||-------------------
D--------------|-------------||-------------------
A--------------|-------------||-------------------
E--------------|-------------||-------------------


   A2        A       A2   A    G/F
e----7-8---------||-----7-8-----------|-----------
B--5-----8-6-5---||--5------8-6-10----|-----------
G----------------||-------------------|-----------
D----------------||-------------------|-----------
A----------------||-------------------|-----------
E----------------||-------------------|-----------

   F         G/F         F       Dm7           G
e----7-8---------||-------------------------------
B--5-----8-6-10--||--5-6-8--6-5--8-66-55-------8--
G----------------||----------------------77--5----
D----------------||-------------------------------
A----------------||-------------------------------
E----------------||-------------------------------


Intro 2º  (todos los punteos son dobles, pero los violines se cruzan mucho)


            C     C2       C      C2       Am      A2    A
e----7-8-------|----7-8------||----7-8-7-8-10-8-7--12---
B--5----8-6-8--|--5----8-6-8-||--5----------------------
G--------------|-------------||-------------------------
D--------------|-------------||-------------------------
A--------------|-------------||-------------------------
E--------------|-------------||-------------------------

   A2    A         G/F            F     G/F
e---||-----7-8-----------|------7-8------------
B---||--5------8-6-10----|---5------8-6-10-----
G---||-------------------|---------------------
D---||-------------------|---------------------
A---||-------------------|---------------------
E---||-------------------|---------------------

        F           Dm7           G
e---||-------------------------------
B---||--5-6-8--6-5--8-66-55-------8--
G---||----------------------77--5----
D---||-------------------------------
A---||-------------------------------
E---||-------------------------------


                   C           C2  C
Si a tu corazón yo llego igual
C2        (C)      Am        A2 A
Todo siempre se podrá elegir
A2        (A)       G/F  F  G/F
No me escribas la pared
         (F)         Dm7         G
Sólo quiero estar entre tu piel

Y si acaso no brillara el sol
Y quedara yo atrapado aquí
No vería la razón
De seguir viviendo sin tu amor


E
    Y hoy que enloquecido vuelvo
   Am
Buscando tu querer
     Dm7
No queda más que viento  oh oh
                   G
No queda más que viento


Y si acaso no brillara el sol
Y quedara yo atrapado aquí
No vería la razón
De seguir viviendo sin tu amor   ohh


(Solo de violín con base de intro)


Y hoy que enloquecido vuelvo
Buscando tu querer
No queda más que viento
No queda más que viento

Y si acaso no brillara el sol
Y quedara yo atrapado aquí
No vería la razón
De seguir viviendo sin tu amor   ohh

Intro 1º
Intro 2º

No vería la razón
De seguir viviendo sin tu amor


   C  C2    Am  A2    G/F F     Dm7  G
e--3--3-----0---0-----3---1-----1----3----------
B--5--3-----1---0-----0---1-----1----3-----------
G--5--5-----2---2-----0---2-----2----4------------
D--5--5-----2---2-----0---3-----0----5------------
A--3--3-----0---2-----2---3-----x----5-------------
E--3--3-----x---x-----1---1-----x----3------------

El Sol con bajo en Fa que pongo suena bien,
sino se puede poner Sol mayor y ya.
() Acordes que no van necesariamente,
Repito que es la versión de Spinetta en Do, los
arreglos los saque de una trascripción de esta página
(que dicho  sea de paso recomiendo)
de Emmanuel, grande maestro!! y los pase a Do y puse el
punteo de Catupecu


Espero que haya quedado bien, es la primera vez que subo un tema.
Spinetta es demasiado músico para mi, pero si hay temas que
me gusta de él son este, durazno sangrando
y la cantata por que no.

Saludos! Sean felices!!

            
            
Suggest correction
Creating personal tab
Creating personal tab
You can edit any tab online and save it as your Personal.

You can edit, replace or remove any tab part or add personal notes – all changes will be seen only by you.

Personal tabs can be accessed anytime from any device, even offline.
Learn more »
Give kudos to tab author, rate the tab!
1 2 3 4 5
comments
print report bad tab
guest
Wanna post a correction for this tab? Suggest correction