Oops, an error
Loading. Please wait.

Soltemos Las Riendas tab

15 views 3 this week
no commentswrite comment
1 2 3 4 5
3 more votes to show rating
add to favorites
×
Save as Personal and add changes to this tab that will be seen only by you. Learn more ›
×
You can save this tab as Personal to edit and correct it or add notes. All changes will be seen only by you. Learn more »
launch autoscroll
font size
0
reset
how to read this tab
guitar tuner
edit
Autoscroll
slow
fast
+/-
esc
set tempo
stop
                                      X3
E||------------------------|------------||---------------|---------------|
B||------------------------|------------||---------------|---------------|
G||*--6----8--6------------|-----------*||---------------|---------------|
D||*-------------8---------|-----------*||--4------------|--6------------|
A||-----------------8------|--6---------||--4------------|--6------------|
E||------------------------|------------||--2------------|--4------------|


            
E||-------------------------------------||
B||-------------------------------------||
G||*--6--8--6--------------------------*||
D||*-----------8-----------------------*||
A||---------------8-----6---------------||
E||-------------------------------------||
         DISFRUTAR ES LO QUE SIEMPRE BUSCAMOS

E||-------------------------------------||
B||-------------------------------------||
G||*-6--8--6---------------------------*||
D||*----------8----------------4----6--*||
A||--------------8-------------4----6---||
E||----------------------------2----4---|| 
     Y AHORA QUE AQUI NOS ENCONTRAMOS.


E||-------------------------------------||
B||-------------------------------------||
G||*--6--8--6--------------------------*||
D||*-----------8-----------------------*||
A||---------------8-----6---------------||
E||-------------------------------------||
       SOLTEMOS LAS RIENDAS 


E||-------------------------------||
B||-------------------------------||
G||*-6--8--6---------------------*||
D||*----------8-----------4----6-*||
A||--------------8--------4----6--||
E||-----------------------2----4--||
       Y NIÑOS SEAMOS          Y NIÑOS SEAMOS   

                                   3x                                
------------------------|------------||---------------|---------------|
------------------------|------------||---------------|---------------|
*--6----8--6------------|-----------*||---------------|---------------|
*-------------8---------|-----------*||--4------------|--6------------|
-----------------8------|--6---------||--4------------|--6------------|
------------------------|------------||--2------------|--4------------|


                                                                           
|------------------------|------------||----------------|----------------||
|------------------------|------------||----------------|----------------||
|*--6----8--6------------|-----------*||*---------------|---------------*||
|*-------------8---------|-----------*||*--4------------|--6------------*||
|-----------------8------|--6---------||---4------------|--6-------------||
|------------------------|------------||---2------------|--4-------------||


                                     9x                                
------------------------|------------||---------------|---------------|
------------------------|------------||---------------|---------------|
*--6----8--6------------|-----------*||---------------|---------------|
*-------------8---------|-----------*||--4------------|--6------------|
-----------------8------|--6---------||--4------------|--6------------|
------------------------|------------||--2------------|--4------------|


                                                                         6x
|------------------------|------------||----------------|----------------||
|------------------------|------------||----------------|----------------||
|*--6----8--6------------|-----------*||*---------------|---------------*||
|*-------------8---------|-----------*||*--4------------|--6------------*||
|-----------------8------|--6---------||---4------------|--6-------------||
|------------------------|------------||---2------------|--4-------------||
Suggest correction
Creating personal tab
Creating personal tab
You can edit any tab online and save it as your Personal.

You can edit, replace or remove any tab part or add personal notes – all changes will be seen only by you.

Personal tabs can be accessed anytime from any device, even offline.
Learn more »
Give kudos to tab author, rate the tab!
1 2 3 4 5
comments
print report bad tab
guest
Wanna post a correction for this tab? Suggest correction