Oops, an error
Loading. Please wait.

Sonando tab

10 views 1 this week
no commentswrite comment
1 2 3 4 5
3 more votes to show rating
add to favorites
×
Save as Personal and add changes to this tab that will be seen only by you. Learn more ›
×
You can save this tab as Personal to edit and correct it or add notes. All changes will be seen only by you. Learn more »
launch autoscroll
font size
0
reset
how to read this tab
guitar tuner
edit
Autoscroll
slow
fast
+/-
esc
set tempo
stop
intro
e|-------------------------|
B|-------------------------|
G|--7p4---7p4---7p4---7p4--|
D|--7p4---7p4---7p4---7p4--|
A|--5p2---5p2---5p2---5p2--|
E|-------------------------|

versos (solo bata)
e|------------------------------------------------------------------------|
B|------------------------------------------------------------------------|
G|------------------------------------------------------------------------|
D|------------------------------------------------------------------------|
A|------------------------------------------------------------------------|
E|------------------------------------------------------------------------|

estribillo (solo bata)
e|------------------------------------------------------------------------|
B|------------------------------------------------------------------------|
G|------------------------------------------------------------------------|
D|------------------------------------------------------------------------|
A|------------------------------------------------------------------------|
E|------------------------------------------------------------------------|

inter
e|-------------------------|
B|-------------------------|
G|--7p4---7p4---7p4---7p4--|
D|--7p4---7p4---7p4---7p4--|
A|--5p2---5p2---5p2---5p2--|
E|-------------------------|

ultimo estribillo (x3)
e|------7-7-------7-7-------7-7----------|------7-7-------7-7-------7-7----------|
B|-8-10------8-10------8-10-----10-8---8-|-8-10------8-10------8-10-----10-8---8-|
G|-----------------------------------7---|-----------------------------------7---|
D|------0-0-------0-0-------0-0----------|------0-0-------0-0-------0-0----------|
A|---------------------------------------|---------------------------------------|
E|-7---------7---------7-----------7-5-7-|-7---------7---------7-----------7-5-7-|

final
e|-------------------------|------------------------------------------|
B|-------------------------|------------------------------------------|
G|--4s7---4s7---4s7---4s7--|------------------------------------------|
D|--4s7---4s7---4s7---4s7--|--5-5----5-5----5-5----5-5----5-5----5-5--|
A|--2s5---2s5---2s5---2s5--|--5-5----5-5----5-5----5-5----5-5----5-5--|
E|-------------------------|--3-3----3-3----3-3----3-3----3-3----3-3--|

NOTA: p = pull-off
      s = slide

LETRA:
soy un intruso en tu inconciencia
miro al reves de lo que piensas
respiro con ansias, ansiosas melodias
invierto los polos y el punto de vista

callarse, escuchar, quemarse, arder
subir el brillo entre los dos
perderse, escuchar todo al reves
todo esta dicho menos hoy

hoy ser el telon manana escenografia
actor de reparto, protagonista
estar en eje, armar las valijas
amar lo noche, enamorarse algun dia

callarse, escuchar, quemarse, arder
subir el brillo entre los dos
perderse, escuchar todo al reves
todo esta dicho menos hoy
Suggest correction
Creating personal tab
Creating personal tab
You can edit any tab online and save it as your Personal.

You can edit, replace or remove any tab part or add personal notes – all changes will be seen only by you.

Personal tabs can be accessed anytime from any device, even offline.
Learn more »
Give kudos to tab author, rate the tab!
1 2 3 4 5
comments
print report bad tab
guest
Wanna post a correction for this tab? Suggest correction