Oops, an error
Loading. Please wait.

Vistiendo bass

49 views 1 this week
no commentswrite comment
1 2 3 4 5
3 more votes to show rating
add to favorites
×
Save as Personal and add changes to this tab that will be seen only by you. Learn more ›
×
You can save this tab as Personal to edit and correct it or add notes. All changes will be seen only by you. Learn more »
launch autoscroll
font size
0
reset
guitar tuner
edit
Autoscroll
slow
fast
+/-
esc
set tempo
stop
Soy Mariano Bria de Jesus Maria-Cba y subo esta tab de un tema magni
fico en todo sentido, ya sea por el hermoso riff con tapping del bajo
como tambien por la letra y por ser Gabriel quien la canta y llena
de emoción... Espero les guste tanto como a mi y q la toquen mucho.


Intro
Solo Guitarra

0:20
Empieza a cantar

"Y si estas vistiendo con espinas a tu pecho hoy...
Como dandote por cierto que el dolor es acierto para poder llegar. ah

Ese estante repleto con tus propios duelos...
Son las migas q dejaste para poder volver ...eh eh... Oh..Oh"


1:32
Entra el Bajo
Riff Principal

g-----13-10-11-13-15-13--11-10----------------
D---13------------------------13-10-11-13-13--
A-11------------------------------------------  (X8)
E---------------------------------------------


2:05

Sigue el riff y vuelva a cantar

"Solo Agua y sol tratando de ir a lo mas alto, pero en vuelo
si nos ves viendo el cielo aterrizo..."

g-----13-10-11-13-15-13--11-10----------------
D---13------------------------13-10-11-13-13--
A-11------------------------------------------  (X4)
E---------------------------------------------


2:20
Estribillo

"Oh cuantas redes, sobre tus cienes..
Oh calma viene... mmm en mis mil seres"

g---------------13-13_15_13-11-13-------------13--13--13-----
D--13--13--13--------------------13--13--13------------------
A----11--11--11--------------------11--11--11---11--11--11---
E------------------------------------------------------------

Esto asi, con algunas variaciones q puedan llegar a meterle, es el
estribillo, escuchenlo bien y busquenle el ritmo...


2:53
Intermedio -con un pequeño cambio, tipo punteo, en el bajo-


g-----13-10-11-13-15-13--11-10----------------
D---13------------------------13-10-11-13-13--
A-11------------------------------------------
E---------------------------------------------

g-----13-10-11-13-15-13--11-10---------13----
D---13------------------------13-10-11-------
A-11-----------------------------------------
E--------------------------------------------

g-13_10_11--15-11--18-11-17--15-11---15_13_15_13--13-10-11-13-13-
D----------------------------------------------------------------
A----------------------------------------------------------------
E----------------------------------------------------------------


3:09
Verso

"Deja ya de estar buscando mas formas de atrasos y siente
que en rio se convierte el velo que te cego..

Paso algo inesperado y el tiempo que a pasado converge cual
ciniente que al fin un dia surgio"

g-----13-10-11-13-15-13--11-10----------------
D---13------------------------13-10-11-13-13--
A-11------------------------------------------  (X8)
E---------------------------------------------


3:41
Estribillo final


g---------------13-13_15_13-11-13-------------13--13--13-----
D--13--13--13--------------------13--13--13------------------
A----11--11--11--------------------11--11--11---11--11--11---
E------------------------------------------------------------


Esto es el tema en si traten de meterle cosas ustedes sobre todo
en los estribos tiene algunos pequeños cambios... Pero tengan en
cuenta que es todo tapping ligando mucho y con mucho hamer...
Si no estan familiarizados con la tecnica busquen, porq esta
buenisimo, por ahi algo Dewayne Pate q es muy groso en esto


-------------------- MARIANOROCKEN@ ----------------------

            
            
Suggest correction
Creating personal tab
Creating personal tab
You can edit any tab online and save it as your Personal.

You can edit, replace or remove any tab part or add personal notes – all changes will be seen only by you.

Personal tabs can be accessed anytime from any device, even offline.
Learn more »
Give kudos to tab author, rate the tab!
1 2 3 4 5
comments
print report bad tab
guest
Wanna post a correction for this tab? Suggest correction