Oops, an error
Loading. Please wait.

Emotive Emandation tab

by Caustic
37 views 1 this week
no commentswrite comment
1 2 3 4 5
3 more votes to show rating
add to favorites
×
Save as Personal and add changes to this tab that will be seen only by you. Learn more ›
×
You can save this tab as Personal to edit and correct it or add notes. All changes will be seen only by you. Learn more »
launch autoscroll
font size
0
reset
how to read this tab
guitar tuner
edit
Autoscroll
slow
fast
+/-
esc
set tempo
stop
Transcribed By: Michael Andersen / Gjoenge

Tuning: D standard

Check https://youtu.be/YhcpS0QwrSU for play video


  [Riff 1]

  G1
D|-----------------------|-----------------------|-----------------------|-----------------------|
A|-----------------------|-----------------------|-----------------------|-----------------------|
F|-----------------------|-----------------------|-------7---------------|-------7---------------|
C|-2-----4-----7---------|-2-----4-----7---------|-5-----7-----9---------|-5-----7-----9---------|
G|-2-----4-----5---------|-2-----4-----5---------|-5-----5-----9---------|-5-----5-----9---------|
D|-0-----2-----5---------|-0-----2-----5---------|-3-----5-----7---------|-3-----5-----7---------|

  G2                                                               
D|-----------------------|-----------------------|-----------------------|-----------------------|
A|-----------------------|-----------------------|-----------------------|-----------------------|
F|-----------------------|-------------7---------|-------4b½r------------|-------4b½r--7----#9#~-|
C|-5-----4---------------|-5-----4---------------|-5-----------4----#5#~-|-5---------------------|
G|-------------5---------|-----------------------|-----------------------|-----------------------|
D|-----------------------|-----------------------|-----------------------|-----------------------|


  [Riff 2] 
  G1
D|-----------------------|-----------------------|
A|-----------------------|-----------------------|
F|-----------------------|-----------------------|
C|-------4-----5---------|-5-----7-----5-----4---|
G|-7---------------------|-----------------------|
D|-----------------------|-----------------------|
                                                       repeat x 2
  G2 
D|-----------------------|-----------------------|
A|-----------------------|-----------------------|
F|-----------------------|-----------------------|
C|-----------------------|-----------------------|
G|-7-----5-----3-----2---|-7-----5-----3-----2---|
D|-----------------------|-----------------------|


  [Riff 3]

  G1                                          * * *
D|-----------------------|--------------------------|
A|-----------------------|--------------------------|
F|-4--------4------------|--------------------------|
C|-------7-----5---------|-2----4----5----3---------|
G|------------------5--7-|-2----2----3----3--3-3-3--|
D|-----------------------|-0----2----3----1--1-1-1--|

  G2                                          * * *
D|-----------------------|--------------------------|
A|-----------------------|--------------------------|
F|-9--------7--5---------|--------------------------|
C|-9-----7--5--5----5--7-|-2----4----5----3---------|
G|-7-----5--5--3----5--7-|-2----2----3----3--3-3-3--|
D|-------5----------3--5-|-0----2----3----1--1-1-1--|


  [Guitar Solo 1 w. wah. Riff 3 rythm continues]
 
  solo1 w. wah                                                                          * *                   
D|------------------------------------------------------------------|---------------------------------------|
A|------------------------------------------------------------------|-0-1-0---0-----------------------------|
F|-14b16r14-12-11--14-12--------------------------------------------|-------2---2-0---0---------------------|
C|-----------------------14----12-14-12----12-14---14-12------------|---------------4---4-2-----2---4--5--3~|
G|--------------------------------------14---------------14-12----15|---------------------------------------|
D|-------------------------------------------------------------15---|---------------------------------------|

      * * *                                                   
D|----------------------------|------------------------------------|
A|---------3-5-7-7b½r7-5~-----|-3h5r3---3-5---3h5r3----------------|
F|---0-2-4--------------------|-------4-------------4-2-/5~--4-----|
C|----------------------------|--------------------------------7-5-|
G|----------------------------|------------------------------------|
D|----------------------------|------------------------------------|

D|----------------------|---------------------|
A|----------------------|---------------------|
F|----------------------|---------------------|
C|---------5------------|----------5--4--3----|
G|-7----5-----7---5-5---|-7b9-----------------|
D|----------------------|---------------------|


  [Riff 3] little variation from Riff 2

  G1
D|-----------------------|-----------------------|
A|-----------------------|-----------------------|
F|-----------------------|-----------------------|
C|-----------------------|-----------------------|
G|-7-----5-----3-----2---|/5-----7-----10----9---|
D|-----------------------|-----------------------|

  G2
D|-----------------------|-----------------------|
A|-----------------------|-----------------------|
F|-----------------------|-----------------------|
C|-------4-----5---------|-----------------------|
G|/7---------------------|-7-----5-----3-----2---|
D|-----------------------|-----------------------|


[Solo 2]

  solo2 intro
D|-------------------15-14-|
A|-------------12----------|
F|-------12-------12-------|
C|-14-------14-------------|
G|----14-------------------|
D|-------------------------|

  solo2 rythm repeat x 2
D|-----------------------|-----------------------|
A|-----------------------|-----------------------|
F|-----------------------|-----------------------|
C|-2-----4-----7---------|-2-----4-----7---------|
G|-2-----4-----5---------|-2-----4-----5---------|
D|-0-----2-----5---------|-0-----2-----5---------|

  Solo2
D|----------15-14~-----|----------15-14-------------|
A|-12~-----------------|-12~------------13-12-------|
F|---------------------|----------------------14~---|
C|---------------------|----------------------------|
G|---------------------|----------------------------|
D|---------------------|----------------------------|

  solo2 rythm
D|-----------------------|-----------------------|
A|-----------------------|-----------------------|
F|-------7---------------|-------7---------------|
C|-5-----7-----9---------|-5-----7-----9---------|
G|-5-----5-----9---------|-5-----5-----9---------|
D|-3-----5-----7---------|-3-----5-----7---------|

  solo2
D|-------------------------|---------------------------------|
A|-------------------------|---------------------------------|
F|-12----------12\11p12r11-|---------------------------------|
C|-------------------------|-16-14-16-14---------------------|
G|-------------------------|--------------17-15-17-15--15-14-|
D|-------------------------|---------------------------------|

D|---------------------------------|-----------------------------------15-14-|
A|---------------------------------|-----------------------------12----------|
F|---------------------------------|-----------------------12-------12-------|
C|---------------------------------|----11-12--12-12-14-------14-------------|
G|-14-12-14---14-17-14---14-15-14--|-14-----------------14-------------------|
D|---------------------------------|-----------------------------------------|

D|----------15-14~-----|----------15-14-------------|
A|-12~-----------------|-12~------------13-12-------|
F|---------------------|----------------------14~---|
C|---------------------|----------------------------|
G|---------------------|----------------------------|
D|---------------------|----------------------------|

  Solo end part
  G1
D|-----------------------|
A|-----------------------|
F|-----------------------|
C|-2---------------------|
G|-2---------------------|
D|-0---------------------|

  G2
D|---------------------|
A|---------------------|
F|-14b16~~~r14---------|
C|---------------------|
G|---------------------|
D|---------------------|


  [Riff 4] start

  G1
D|---------------------------|---------------------------|
A|---------------------------|---------------------------|
F|---------------------------|---------------------------|
C|------/9---7---5-----------|------/9---7---5-----------|
G|-/7----------------5-------|-/7----------------5-------|
D|---------------------------|---------------------------|

  G2
D|---------------------------|---------------------------|
A|---------------------------|---------------------------|
F|---------------------------|---------------------------|
C|---------------------------|-------------------7-------|
G|-------------------5-------|-7-------------------------|
D|---------------7-----------|---------------------------|

  Riff 4

  G1
D|--------------------------|--------------------------|--------------------------|-------------------------|
A|--------------------------|--------------------------|------5-------------------|------5------------------|
F|--------------------------|--------------------------|-----------5--------------|-----------5-------------|
C|------/9---7---5----------|------/9---7---5----------|-/7------------3---3-5----|-/7------------3---3-5---|
G|-/7----------------5------|-/7----------------5------|--------------------------|-------------------------|
D|--------------------------|--------------------------|--------------------------|-------------------------|

  G2
D|--------------------------|--------------------------|--------------------------|-------------------------|
A|--------------------------|--------------------------|--------------------------|-------------------------|
F|---------------7----------|---------------7----------|--------------------------|-------------------------|
C|-/9----------------7------|-/9----------------7------|------5----7--------------|------5----7-------------|
G|------10---7--------------|------10---7--------------|-/7------------3---3-5----|-/7------------3---3-5---|
D|--------------------------|--------------------------|--------------------------|-------------------------|


[Solo 3] over Riff4

D|-----------------------------------------------------------|
A|---------------------------15--12-\10---12r10-----8-10-/12-|
F|-14b16r14-12-----12-14-14b---------------------------------|
C|-------------14--------------------------------------------|
G|-----------------------------------------------------------|
D|-----------------------------------------------------------|

D|-----------------------------------------------------------|
A|-12-13-12----12----12-13-12--10-12-10------8-10-8----------|
F|----------14--------------------------------------11-9-7---|
C|-----------------------------------------------------------|
G|-----------------------------------------------------------|
D|-----------------------------------------------------------|


Play Riff1

  
[End part]

  G1
D|-----------------------|
A|-----------------------|
F|-----------------------|
C|-2-------(2)-----------|
G|-2-------(2)-----------|
D|-0-------(0)-----------|
 
  G2
D|------------------------------|
A|------------------------------|
F|-7-5-4-5-4-2-4-2-0------------|
C|-------------------3-2--3-2---|
G|------------------------------|
D|------------------------------|


[Acoustic end part]

   Em          D   C       Em          D     Em
D|---------2--2-2-0-0-0--|---------2--2-2----0---|
A|-------0----3-3---1-1--|-------0----3-3----0---|
F|-----0-----------------|-----0-----------------|
C|---2-----2--0-0--------|---2-----2--0-0-/7-7---|
G|------------------3-3--|-----------------------|
D|-0---------------------|-0---------------------|

D|-12-12h13r12h13-10--10h12r10h12-8--8h10r8h10-7-|
A|--------------------0--------------------------|
F|-----------------------------------------------|
C|-----------------------------------------------|
G|-----------------------------------------------|
D|-0---------------------------------------------|

D|-------7-----5---------------------5--------------------------------|
A|---------5-----5---8---7-------7-8---------5---5---5-----7---7---7--|
F|-----5-----5-----5---5---5---5-----------5---5---5-----7---7---7----|
C|---7-----------------------7----------------------------------------|
G|-0-------------------------------------3-------------5--------------|
D|--------------------------------------------------------------------|

D|-----0---2---3------------0---2--------------0----0--0--2--2--|
A|---0---0---0---0------3--------------1---3--------1--1--3--3--|
F|--------------------4---4---4------0---0---0---0--------------|
C|------------------0-------------------------------------0--0--|
G|---------------------------------3----------------3--3--------|
D|-0------------------------------------------------------------|

   Em          D   C       Em          D     Em
D|---------2--2-2-0-0-0--|---------2--2-2----0---|
A|-------0----3-3---1-1--|-------0----3-3----0---|
F|-----0-----------------|-----0-----------------|
C|---2-----2--0-0--------|---2-----2--0-0-/7-7---|
G|------------------3-3--|-----------------------|
D|-0---------------------|-0---------------------|



************************************

* : Palm mute
/ \ : Slide up / down
~ : Vibrato
b : bend
h : hammer on
r : release
# # : Pinch Harmonic


************************************

            
            
Suggest correction
Creating personal tab
Creating personal tab
You can edit any tab online and save it as your Personal.

You can edit, replace or remove any tab part or add personal notes – all changes will be seen only by you.

Personal tabs can be accessed anytime from any device, even offline.
Learn more »
Give kudos to tab author, rate the tab!
1 2 3 4 5
comments
print report bad tab
guest
You may want to rate the tab now too:
select rating
Wanna post a correction for this tab? Suggest correction