Oops, an error
Loading. Please wait.

Killing Me tab

version 1
version 1

Whole song

2,087 views 3 this week
no commentswrite comment
1 2 3 4 5
1 last vote to show rating
add to favorites
×
Save as Personal and add changes to this tab that will be seen only by you. Learn more ›
×
You can save this tab as Personal to edit and correct it or add notes. All changes will be seen only by you. Learn more »
launch autoscroll
font size
0
reset
how to read this tab
guitar tuner
edit
Autoscroll
slow
fast
+/-
esc
set tempo
stop
Difficulty
Cauterize- Killing Me
Tabed by: Jesse Blekkenhorst

I know Cauterize is bout to quit but their music is 
still there so here's the tab for Killing me.

1st intro
Its the part thats also the outro sorry i couldn't figure it out.


2nd intro
Guitar1
e---------------------------------------------|
b---------------------------------------------|
g----5-5-5-----------8-8-8--------------------|
d----5-5-5---6-6-6---8-8-8---8-8--6-6---8-8---| 4x
a----3-3-3---6-6-6---6-6-6---8-8--6-6---8-8---|
e------------4-4-4-----------6-6--4-4---6-6---|
Guitar2
e---------------------------------------------|
b---------------------------------------------|
g----------8--8--8--7--7--7-----8-7-----------|
d----------------------------8------8---------|Falls in after the 
a---------------------------------------------|above played 2 times
e---------------------------------------------|


Verse
first the bass plays the intro 4 times
then
Guitar 1
e---------------------------------------------|
b---------------------------------------------|
g----8888888888888888-------------------------|
d----8888888888888888-------------------------|2x
a----6666666666666666-------------------------|
e---------------------------------------------|

Guitar2
e---------------------------------------------|
b---------------------------------------------|
g----------8--8--8--7--7--7-----8-7-----------|
d----------------------------8------8---------|6x palm muted the last
a---------------------------------------------|2 times no palm mute
e---------------------------------------------|


Chorus
Guitar1&2
e---------------------------------------------|  ---------|
b---------------------------------------------|  ---------|
g----8888-5555--------------------------------|  --8------|
d----8888-5555-88888888-----------------------|2x--8------|
a----6666-3333-88888888-----------------------|  --6------|
e--------------66668888-----------------------|  ---------|


Verse
first the bass plays the intro 4 times
then
Guitar 1
e---------------------------------------------|
b---------------------------------------------|
g----8888888888888888-------------------------|
d----8888888888888888-------------------------|2x
a----6666666666666666-------------------------|
e---------------------------------------------|

Guitar2
e---------------------------------------------|
b---------------------------------------------|
g----------8--8--8--7--7--7-----8-7-----------|
d----------------------------8------8---------|6x palm muted the last
a---------------------------------------------|2 times no palm mute
e---------------------------------------------|

Chorus
Guitar1&2
e---------------------------------------------|
b---------------------------------------------|
g----8888-5555--------------------------------|
d----8888-5555-88888888-----------------------|2x
a----6666-3333-88888888-----------------------|
e--------------66668888-----------------------|

Guitar1&2
e-------------------------------------|   -------------|
b-------------------------------------|   -------------|
g----8-55-----------------------------|   -8-55------8-| 
d----8-55-88-6------------------------|2x -8-55-88-6-8-|3th time
a----6-33-88-6------------------------|   -6-33-88-6-6-|
e---------66-4------------------------|   ------66-4---|

This is the part were Jesse Sings KILLING ME!!!
Guitar1
e---------------------------------------------|
b---------------------------------------------|
g----5-5-5-----------8-8-8--------------------|
d----5-5-5---6-6-6---8-8-8---8-8--6-6---8-8---| 4x
a----3-3-3---6-6-6---6-6-6---8-8--6-6---8-8---|
e------------4-4-4-----------6-6--4-4---6-6---|
Guitar2
e---------------------------------------------|
b---------------------------------------------|
g----------8--8--8--7--7--7-----8-7-----------|
d----------------------------8------8---------|Falls in after the 
a---------------------------------------------|above played 2 times
e---------------------------------------------|

Guitar1&2
e-------------------------------------------------|Other people would
b-------------------------------------------------|tune into drop D
g-------------------------------------------------|But I prefer this
d----1-1-1-1-1-1-1-1-1-55555555-8888888888888888--|cause its such
a----1-1-1-1-1-1-1-1-1-55555555-8888888888888888--|a tiny piece
e----------------------33333333-6666666666666666--|

Chorus
Guitar1&2
e---------------------------------------------|
b---------------------------------------------|
g----8888-5555--------------------------------|
d----8888-5555-88888888-----------------------|2x
a----6666-3333-88888888-----------------------|
e--------------66668888-----------------------|

Guitar1&2
e-------------------------------------|   -------------|
b-------------------------------------|   -------------|
g----8-55-----------------------------|   -8-55------8-| 
d----8-55-88-6------------------------|2x -8-55-88-6-8-|3th time
a----6-33-88-6------------------------|   -6-33-88-6-6-|
e---------66-4------------------------|   ------66-4---|

Guitar1&2
e---------------------------------------------|
b---------------------------------------------|
g----5-5-5-----------8-8-8--------------------|
d----5-5-5---6-6-6---8-8-8---8-8--6-6---8-8---|2x
a----3-3-3---6-6-6---6-6-6---8-8--6-6---8-8---|
e------------4-4-4-----------6-6--4-4---6-6---|

Outro


Thats about it sorry but I cant figure out wat the 1st intro is
I'll work on it but I promise nothing.
I think that wats in it is about right, so...
For any commets or if you know the 1st intro mail me at
wittewervelwind@msn.com

Rock on

            
            
Suggest correction
Creating personal tab
Creating personal tab
You can edit any tab online and save it as your Personal.

You can edit, replace or remove any tab part or add personal notes – all changes will be seen only by you.

Personal tabs can be accessed anytime from any device, even offline.
Learn more »
Give kudos to tab author, rate the tab!
1 2 3 4 5
comments
print report bad tab
guest
Wanna post a correction for this tab? Suggest correction