Oops, an error
Loading. Please wait.

Paper Wings Chords

version 2
version 2

Whole song

1,459 views 1 this week
1 commentread comment
1 2 3 4 5
please rate
add to favorites
launch autoscroll
font size
0
reset
transpose
0
reset
display chords
guitar tuner
Autoscroll
slow
fast
+/-
esc
set tempo
stop
Help us to improve Ultimate-Guitar.com Take our survey!
×
This is my first tab submission ever, so bear with me.

Chords used in this song include C, FM7, Em, Am, and Dm.
The strumming is fairly simple except at the beginning of verses.

note - the strumming is not specific!


LEGEND
()    strum lightly
~     Hold Previous note

Intro to Verse 1
    C
eb|-0--0--0-0-0-0---0-0--0-0-0-0--0--0--0-0-0-0---0-0--0-0-0-0--|
Bb|-1--1--1-1-1-1---1-1--1-1-1-1--1--1--1-1-1-1---1-1--1-1-1-1--|
Gb|-0--0--0-0-0-0---0-0--0-0-0-0--0--0--0-0-0-0---0-0--0-0-0-0--|
Db|-2--2--2-2-2-2---2-2--2-2-2-2--2--2--2-2-2-2---2-2--2-2-2-2--|
Ab|-3--3--3-3-3-3---3-3--3-3-3-3--3--3--3-3-3-3---3-3--3-3-3-3--|
Eb|-------------------------------------------------------------|

Verse 1
  C
|-0-(0)-0-(0)-0-(0)-0-(0)-0-(0)-0-(0)-0-(0)-0-(0)-|
|-1-(1)-1-(1)-1-(1)-1-(1)-1-(1)-1-(1)-1-(1)-1-(1)-|
|-0-(0)-0-(0)-0-(0)-0-(0)-0-(0)-0-(0)-0-(0)-0-(0)-|
|-2-(2)-2-(2)-2-(2)-2-(2)-2-(2)-2-(2)-2-(2)-2-(2)-|
|-3-(3)-3-(3)-3-(3)-3-(3)-3-(3)-3-(3)-3-(3)-3-(3)-|
|-------------------------------------------------|

  FM7
|-0-(0)-0-(0)-0-(0)-0-(0)-0-(0)-0-(0)-0-(0)-0-(0)-|
|-1-(1)-1-(1)-1-(1)-1-(1)-1-(1)-1-(1)-1-(1)-1-(1)-|
|-2-(2)-2-(2)-2-(2)-2-(2)-2-(2)-2-(2)-2-(2)-2-(2)-|
|-3-(3)-3-(3)-3-(3)-3-(3)-3-(3)-3-(3)-3-(3)-3-(3)-|
|-3-(3)-3-(3)-3-(3)-3-(3)-3-(3)-3-(3)-3-(3)-3-(3)-|
|-------------------------------------------------|
|-------------------------------------------------|

  C
|-0-(0)-0-(0)-0-(0)-0-(0)-0-(0)-0-(0)-0-(0)-0-(0)-|
|-1-(1)-1-(1)-1-(1)-1-(1)-1-(1)-1-(1)-1-(1)-1-(1)-|
|-0-(0)-0-(0)-0-(0)-0-(0)-0-(0)-0-(0)-0-(0)-0-(0)-|
|-2-(2)-2-(2)-2-(2)-2-(2)-2-(2)-2-(2)-2-(2)-2-(2)-|
|-3-(3)-3-(3)-3-(3)-3-(3)-3-(3)-3-(3)-3-(3)-3-(3)-|
|-------------------------------------------------|

  FM7
|-0-(0)-0-(0)-0-(0)-0-(0)-0-(0)-0-(0)-0-(0)-0-(0)-|
|-1-(1)-1-(1)-1-(1)-1-(1)-1-(1)-1-(1)-1-(1)-1-(1)-|
|-2-(2)-2-(2)-2-(2)-2-(2)-2-(2)-2-(2)-2-(2)-2-(2)-|
|-3-(3)-3-(3)-3-(3)-3-(3)-3-(3)-3-(3)-3-(3)-3-(3)-|
|-3-(3)-3-(3)-3-(3)-3-(3)-3-(3)-3-(3)-3-(3)-3-(3)-|
|-------------------------------------------------|
|-------------------------------------------------|

Chorus

  Am                       Em
|-0-(0)-0-(0)-0-(0)-0-(0)--0-(0)-0-(0)-0-(0)-0-(0)-|
|-1-(1)-1-(1)-1-(1)-1-(1)--0-(0)-0-(0)-0-(0)-0-(0)-|
|-2-(2)-2-(2)-2-(2)-2-(2)--0-(0)-0-(0)-0-(0)-0-(0)-|
|-2-(2)-2-(2)-2-(2)-2-(2)--2-(2)-2-(2)-2-(2)-2-(2)-|
|-0-(0)-0-(0)-0-(0)-0-(0)--2-(2)-2-(2)-2-(2)-2-(2)-|
|--------------------------0-(0)-0-(0)-0-(0)-0-(0)-|

  Am                       Em
|-0-(0)-0-(0)-0-(0)-0-(0)--0-(0)-0-(0)-0-(0)-0-(0)-|
|-1-(1)-1-(1)-1-(1)-1-(1)--0-(0)-0-(0)-0-(0)-0-(0)-|
|-2-(2)-2-(2)-2-(2)-2-(2)--0-(0)-0-(0)-0-(0)-0-(0)-|
|-2-(2)-2-(2)-2-(2)-2-(2)--2-(2)-2-(2)-2-(2)-2-(2)-|
|-0-(0)-0-(0)-0-(0)-0-(0)--2-(2)-2-(2)-2-(2)-2-(2)-|
|--------------------------0-(0)-0-(0)-0-(0)-0-(0)-|

  Dm                       Am
|-1-(1)-1-(1)-1-(1)-1-(1)--0-(0)-0-(0)-0-(0)-0-(0)-|
|-3-(3)-3-(3)-3-(3)-3-(3)--1-(1)-1-(1)-1-(1)-1-(1)-|
|-2-(2)-2-(2)-2-(2)-2-(2)--2-(2)-2-(2)-2-(2)-2-(2)-|
|-0-(0)-0-(0)-0-(0)-0-(0)--2-(2)-2-(2)-2-(2)-2-(2)-|
|--------------------------0-(0)-0-(0)-0-(0)-0-(0)-|
|--------------------------------------------------|

  Dm                       Am
|-1-(1)-1-(1)-1-(1)-1-(1)--0-(0)-0-(0)-0-(0)-0-(0)-|
|-3-(3)-3-(3)-3-(3)-3-(3)--1-(1)-1-(1)-1-(1)-1-(1)-|
|-2-(2)-2-(2)-2-(2)-2-(2)--2-(2)-2-(2)-2-(2)-2-(2)-|
|-0-(0)-0-(0)-0-(0)-0-(0)--2-(2)-2-(2)-2-(2)-2-(2)-|
|--------------------------0-(0)-0-(0)-0-(0)-0-(0)-|
|--------------------------------------------------|

  Em
|-0-(0)-0-(0)-0-(0)-0-(0)-0-(0)-0-(0)-0-(0)-0-(0)-|
|-0-(0)-0-(0)-0-(0)-0-(0)-0-(0)-0-(0)-0-(0)-0-(0)-|
|-0-(0)-0-(0)-0-(0)-0-(0)-0-(0)-0-(0)-0-(0)-0-(0)-|
|-2-(2)-2-(2)-2-(2)-2-(2)-2-(2)-2-(2)-2-(2)-2-(2)-|
|-2-(2)-2-(2)-2-(2)-2-(2)-2-(2)-2-(2)-2-(2)-2-(2)-|
|-0-(0)-0-(0)-0-(0)-0-(0)-0-(0)-0-(0)-0-(0)-0-(0)-|

  G
|-3-(3)-3-(3)-3-(3)-3-(3)-3-(3)-3-(3)-3~~~~~~~~~~~|
|-3-(3)-3-(3)-3-(3)-3-(3)-3-(3)-3-(3)-3~~~~~~~~~~~|
|-0-(0)-0-(0)-0-(0)-0-(0)-0-(0)-0-(0)-0~~~~~~~~~~~|
|-0-(0)-0-(0)-0-(0)-0-(0)-0-(0)-0-(0)-0~~~~~~~~~~~|
|-------------------------------------------------|
|-------------------------------------------------|

Intro to Verse 2
    C
eb|-0--0--0-0-0-0---0-0--0-0-0-0--0--0--0-0-0-0---0-0--0-0-0-0--|
Bb|-1--1--1-1-1-1---1-1--1-1-1-1--1--1--1-1-1-1---1-1--1-1-1-1--|
Gb|-0--0--0-0-0-0---0-0--0-0-0-0--0--0--0-0-0-0---0-0--0-0-0-0--|
Db|-2--2--2-2-2-2---2-2--2-2-2-2--2--2--2-2-2-2---2-2--2-2-2-2--|
Ab|-3--3--3-3-3-3---3-3--3-3-3-3--3--3--3-3-3-3---3-3--3-3-3-3--|
Eb|-------------------------------------------------------------|

Verse 2
  C
|-0-(0)-0-(0)-0-(0)-0-(0)-0-(0)-0-(0)-0-(0)-0-(0)-|
|-1-(1)-1-(1)-1-(1)-1-(1)-1-(1)-1-(1)-1-(1)-1-(1)-|
|-0-(0)-0-(0)-0-(0)-0-(0)-0-(0)-0-(0)-0-(0)-0-(0)-|
|-2-(2)-2-(2)-2-(2)-2-(2)-2-(2)-2-(2)-2-(2)-2-(2)-|
|-3-(3)-3-(3)-3-(3)-3-(3)-3-(3)-3-(3)-3-(3)-3-(3)-|
|-------------------------------------------------|

  FM7
|-0-(0)-0-(0)-0-(0)-0-(0)-0-(0)-0-(0)-0-(0)-0-(0)-|
|-1-(1)-1-(1)-1-(1)-1-(1)-1-(1)-1-(1)-1-(1)-1-(1)-|
|-2-(2)-2-(2)-2-(2)-2-(2)-2-(2)-2-(2)-2-(2)-2-(2)-|
|-3-(3)-3-(3)-3-(3)-3-(3)-3-(3)-3-(3)-3-(3)-3-(3)-|
|-3-(3)-3-(3)-3-(3)-3-(3)-3-(3)-3-(3)-3-(3)-3-(3)-|
|-------------------------------------------------|
|-------------------------------------------------|

  C
|-0-(0)-0-(0)-0-(0)-0-(0)-0-(0)-0-(0)-0-(0)-0-(0)-|
|-1-(1)-1-(1)-1-(1)-1-(1)-1-(1)-1-(1)-1-(1)-1-(1)-|
|-0-(0)-0-(0)-0-(0)-0-(0)-0-(0)-0-(0)-0-(0)-0-(0)-|
|-2-(2)-2-(2)-2-(2)-2-(2)-2-(2)-2-(2)-2-(2)-2-(2)-|
|-3-(3)-3-(3)-3-(3)-3-(3)-3-(3)-3-(3)-3-(3)-3-(3)-|
|-------------------------------------------------|

  FM7
|-0-(0)-0-(0)-0-(0)-0-(0)-0-(0)-0-(0)-0-(0)-0-(0)-|
|-1-(1)-1-(1)-1-(1)-1-(1)-1-(1)-1-(1)-1-(1)-1-(1)-|
|-2-(2)-2-(2)-2-(2)-2-(2)-2-(2)-2-(2)-2-(2)-2-(2)-|
|-3-(3)-3-(3)-3-(3)-3-(3)-3-(3)-3-(3)-3-(3)-3-(3)-|
|-3-(3)-3-(3)-3-(3)-3-(3)-3-(3)-3-(3)-3-(3)-3-(3)-|
|-------------------------------------------------|
|-------------------------------------------------|

Chorus

  Am                       Em
|-0-(0)-0-(0)-0-(0)-0-(0)--0-(0)-0-(0)-0-(0)-0-(0)-|
|-1-(1)-1-(1)-1-(1)-1-(1)--0-(0)-0-(0)-0-(0)-0-(0)-|
|-2-(2)-2-(2)-2-(2)-2-(2)--0-(0)-0-(0)-0-(0)-0-(0)-|
|-2-(2)-2-(2)-2-(2)-2-(2)--2-(2)-2-(2)-2-(2)-2-(2)-|
|-0-(0)-0-(0)-0-(0)-0-(0)--2-(2)-2-(2)-2-(2)-2-(2)-|
|--------------------------0-(0)-0-(0)-0-(0)-0-(0)-|

  Am                       Em
|-0-(0)-0-(0)-0-(0)-0-(0)--0-(0)-0-(0)-0-(0)-0-(0)-|
|-1-(1)-1-(1)-1-(1)-1-(1)--0-(0)-0-(0)-0-(0)-0-(0)-|
|-2-(2)-2-(2)-2-(2)-2-(2)--0-(0)-0-(0)-0-(0)-0-(0)-|
|-2-(2)-2-(2)-2-(2)-2-(2)--2-(2)-2-(2)-2-(2)-2-(2)-|
|-0-(0)-0-(0)-0-(0)-0-(0)--2-(2)-2-(2)-2-(2)-2-(2)-|
|--------------------------0-(0)-0-(0)-0-(0)-0-(0)-|

  Dm                       Am
|-1-(1)-1-(1)-1-(1)-1-(1)--0-(0)-0-(0)-0-(0)-0-(0)-|
|-3-(3)-3-(3)-3-(3)-3-(3)--1-(1)-1-(1)-1-(1)-1-(1)-|
|-2-(2)-2-(2)-2-(2)-2-(2)--2-(2)-2-(2)-2-(2)-2-(2)-|
|-0-(0)-0-(0)-0-(0)-0-(0)--2-(2)-2-(2)-2-(2)-2-(2)-|
|--------------------------0-(0)-0-(0)-0-(0)-0-(0)-|
|--------------------------------------------------|

  Dm                       Am
|-1-(1)-1-(1)-1-(1)-1-(1)--0-(0)-0-(0)-0-(0)-0-(0)-|
|-3-(3)-3-(3)-3-(3)-3-(3)--1-(1)-1-(1)-1-(1)-1-(1)-|
|-2-(2)-2-(2)-2-(2)-2-(2)--2-(2)-2-(2)-2-(2)-2-(2)-|
|-0-(0)-0-(0)-0-(0)-0-(0)--2-(2)-2-(2)-2-(2)-2-(2)-|
|--------------------------0-(0)-0-(0)-0-(0)-0-(0)-|
|--------------------------------------------------|

  Em
|-0-(0)-0-(0)-0-(0)-0-(0)-0-(0)-0-(0)-0-(0)-0-(0)-|
|-0-(0)-0-(0)-0-(0)-0-(0)-0-(0)-0-(0)-0-(0)-0-(0)-|
|-0-(0)-0-(0)-0-(0)-0-(0)-0-(0)-0-(0)-0-(0)-0-(0)-|
|-2-(2)-2-(2)-2-(2)-2-(2)-2-(2)-2-(2)-2-(2)-2-(2)-|
|-2-(2)-2-(2)-2-(2)-2-(2)-2-(2)-2-(2)-2-(2)-2-(2)-|
|-0-(0)-0-(0)-0-(0)-0-(0)-0-(0)-0-(0)-0-(0)-0-(0)-|

  G
|-3-(3)-3-(3)-3-(3)-3-(3)-3-(3)-3-(3)-3~~~~~~~~~~~|
|-3-(3)-3-(3)-3-(3)-3-(3)-3-(3)-3-(3)-3~~~~~~~~~~~|
|-0-(0)-0-(0)-0-(0)-0-(0)-0-(0)-0-(0)-0~~~~~~~~~~~|
|-0-(0)-0-(0)-0-(0)-0-(0)-0-(0)-0-(0)-0~~~~~~~~~~~|
|-------------------------------------------------|
|-------------------------------------------------|

Bridge
  C                        Am
|-0-(0)-0-(0)-0-(0)-0-(0)--0-(0)-0-(0)-0-(0)-0-(0)-|
|-1-(1)-1-(1)-1-(1)-1-(1)--1-(1)-1-(1)-1-(1)-1-(1)-|
|-0-(0)-0-(0)-0-(0)-0-(0)--2-(2)-2-(2)-2-(2)-2-(2)-|
|-2-(2)-2-(2)-2-(2)-2-(2)--2-(2)-2-(2)-2-(2)-2-(2)-|
|-3-(3)-3-(3)-3-(3)-3-(3)--0-(0)-0-(0)-0-(0)-0-(0)-|
|--------------------------------------------------|

  Em                       FM7
|-0-(0)-0-(0)-0-(0)-0-(0)--1-(1)-1-(1)-1-(1)-1-(1)-|
|-0-(0)-0-(0)-0-(0)-0-(0)--1-(1)-1-(1)-1-(1)-1-(1)-|
|-0-(0)-0-(0)-0-(0)-0-(0)--2-(2)-2-(2)-2-(2)-2-(2)-|
|-2-(2)-2-(2)-2-(2)-2-(2)--3-(3)-3-(3)-3-(3)-3-(3)-|
|-2-(2)-2-(2)-2-(2)-2-(2)--3-(3)-3-(3)-3-(3)-3-(3)-|
|-0-(0)-0-(0)-0-(0)-0-(0)--1-(1)-1-(1)-1-(1)-1-(1)-|

  C                   Am
|-0--0--0-0-0-0-0-0---0--0--0-0-0-0-0-0--|
|-1--1--1-1-1-1-1-1---1--1--1-1-1-1-1-1--|
|-0--0--0-0-0-0-0-0---2--2--2-2-2-2-2-2--|
|-2--2--2-2-2-2-2-2---2--2--2-2-2-2-2-2--|
|-3--3--3-3-3-3-3-3---0--0--0-0-0-0-0-0--|
|----------------------------------------|

  Em                       FM7
|-0-(0)-0-(0)-0-(0)-0-(0)--1-(1)-1-(1)-1-(1)-1-(1)-|
|-0-(0)-0-(0)-0-(0)-0-(0)--1-(1)-1-(1)-1-(1)-1-(1)-|
|-0-(0)-0-(0)-0-(0)-0-(0)--2-(2)-2-(2)-2-(2)-2-(2)-|
|-2-(2)-2-(2)-2-(2)-2-(2)--3-(3)-3-(3)-3-(3)-3-(3)-|
|-2-(2)-2-(2)-2-(2)-2-(2)--3-(3)-3-(3)-3-(3)-3-(3)-|
|-0-(0)-0-(0)-0-(0)-0-(0)--1-(1)-1-(1)-1-(1)-1-(1)-|

  C                   Am
|-0--0--0-0-0-0-0-0---0--0--0-0-0-0-0-0--|
|-1--1--1-1-1-1-1-1---1--1--1-1-1-1-1-1--|
|-0--0--0-0-0-0-0-0---2--2--2-2-2-2-2-2--|
|-2--2--2-2-2-2-2-2---2--2--2-2-2-2-2-2--|
|-3--3--3-3-3-3-3-3---0--0--0-0-0-0-0-0--|
|----------------------------------------|

  Em                       FM7
|-0-(0)-0-(0)-0-(0)-0-(0)--1-(1)-1-(1)-1-(1)-1-(1)-|
|-0-(0)-0-(0)-0-(0)-0-(0)--1-(1)-1-(1)-1-(1)-1-(1)-|
|-0-(0)-0-(0)-0-(0)-0-(0)--2-(2)-2-(2)-2-(2)-2-(2)-|
|-2-(2)-2-(2)-2-(2)-2-(2)--3-(3)-3-(3)-3-(3)-3-(3)-|
|-2-(2)-2-(2)-2-(2)-2-(2)--3-(3)-3-(3)-3-(3)-3-(3)-|
|-0-(0)-0-(0)-0-(0)-0-(0)--1-(1)-1-(1)-1-(1)-1-(1)-|

Chorus

  Am                       Em
|-0-(0)-0-(0)-0-(0)-0-(0)--0-(0)-0-(0)-0-(0)-0-(0)-|
|-1-(1)-1-(1)-1-(1)-1-(1)--0-(0)-0-(0)-0-(0)-0-(0)-|
|-2-(2)-2-(2)-2-(2)-2-(2)--0-(0)-0-(0)-0-(0)-0-(0)-|
|-2-(2)-2-(2)-2-(2)-2-(2)--2-(2)-2-(2)-2-(2)-2-(2)-|
|-0-(0)-0-(0)-0-(0)-0-(0)--2-(2)-2-(2)-2-(2)-2-(2)-|
|--------------------------0-(0)-0-(0)-0-(0)-0-(0)-|

  Am                       Em
|-0-(0)-0-(0)-0-(0)-0-(0)--0-(0)-0-(0)-0-(0)-0-(0)-|
|-1-(1)-1-(1)-1-(1)-1-(1)--0-(0)-0-(0)-0-(0)-0-(0)-|
|-2-(2)-2-(2)-2-(2)-2-(2)--0-(0)-0-(0)-0-(0)-0-(0)-|
|-2-(2)-2-(2)-2-(2)-2-(2)--2-(2)-2-(2)-2-(2)-2-(2)-|
|-0-(0)-0-(0)-0-(0)-0-(0)--2-(2)-2-(2)-2-(2)-2-(2)-|
|--------------------------0-(0)-0-(0)-0-(0)-0-(0)-|

  Dm                       Am
|-1-(1)-1-(1)-1-(1)-1-(1)--0-(0)-0-(0)-0-(0)-0-(0)-|
|-3-(3)-3-(3)-3-(3)-3-(3)--1-(1)-1-(1)-1-(1)-1-(1)-|
|-2-(2)-2-(2)-2-(2)-2-(2)--2-(2)-2-(2)-2-(2)-2-(2)-|
|-0-(0)-0-(0)-0-(0)-0-(0)--2-(2)-2-(2)-2-(2)-2-(2)-|
|--------------------------0-(0)-0-(0)-0-(0)-0-(0)-|
|--------------------------------------------------|

  Dm                       Am
|-1-(1)-1-(1)-1-(1)-1-(1)--0-(0)-0-(0)-0-(0)-0-(0)-|
|-3-(3)-3-(3)-3-(3)-3-(3)--1-(1)-1-(1)-1-(1)-1-(1)-|
|-2-(2)-2-(2)-2-(2)-2-(2)--2-(2)-2-(2)-2-(2)-2-(2)-|
|-0-(0)-0-(0)-0-(0)-0-(0)--2-(2)-2-(2)-2-(2)-2-(2)-|
|--------------------------0-(0)-0-(0)-0-(0)-0-(0)-|
|--------------------------------------------------|

  Em
|-0-(0)-0-(0)-0-(0)-0-(0)-0-(0)-0-(0)-0-(0)-0-(0)-|
|-0-(0)-0-(0)-0-(0)-0-(0)-0-(0)-0-(0)-0-(0)-0-(0)-|
|-0-(0)-0-(0)-0-(0)-0-(0)-0-(0)-0-(0)-0-(0)-0-(0)-|
|-2-(2)-2-(2)-2-(2)-2-(2)-2-(2)-2-(2)-2-(2)-2-(2)-|
|-2-(2)-2-(2)-2-(2)-2-(2)-2-(2)-2-(2)-2-(2)-2-(2)-|
|-0-(0)-0-(0)-0-(0)-0-(0)-0-(0)-0-(0)-0-(0)-0-(0)-|

  G
|-3-(3)-3-(3)-3-(3)-3-(3)-3-(3)-3-(3)-3~~~~~~~~~~~|
|-3-(3)-3-(3)-3-(3)-3-(3)-3-(3)-3-(3)-3~~~~~~~~~~~|
|-0-(0)-0-(0)-0-(0)-0-(0)-0-(0)-0-(0)-0~~~~~~~~~~~|
|-0-(0)-0-(0)-0-(0)-0-(0)-0-(0)-0-(0)-0~~~~~~~~~~~|
|-------------------------------------------------|
|-------------------------------------------------|

C
|-0~~~~~~~~~~~~|
|-1~~~~~~~~~~~~|
|-0~~~~~~~~~~~~|
|-2~~~~~~~~~~~~|
|-3~~~~~~~~~~~~|
|--------------|
Suggest correction
Give kudos to tab author, rate the tab!
1 2 3 4 5
comments
print report bad tab
1 comment total.
0 reply
shadowsv3nom 10 wrote on July 1 2009, 03:34 pm

Great tab! Although I was a little thrown off in the verse when I saw 7 lines instead of six ;D

guest
You may want to rate the tab now too:
select rating
Please do not post tabs as comments. Select "correction" instead!