Oops, an error
Loading. Please wait.

Stoic Tab

271 views 1 this week
no commentswrite comment
1 2 3 4 5
3 more votes to show rating
add to favorites
launch autoscroll
font size
0
reset
how to read this tab
guitar tuner
×
Best way to learn
"Stoic"
Autoscroll
slow
fast
+/-
esc
set tempo
stop
Author
Difficulty
Tuning
  follow
intermediate
D# G# C# F# A# D#
CAVE IN - STOIC

Eb tuning

( ) = Guitar one 
BU = bend down


    Eb|----------------0-|
    Bb|----------------0-|
GTR Gb|------------------| x4    
 1  Db|-3-------10-----9-|              
    Ab|-3-------10-----9-|
    Eb|-1-------8---0--7-|
        PM         PM

    Eb|--- 1,4 ---|------------20-20-20-20-|-----------24-24-24-24-|
    Bb|-----------|------------19-19-19-19-|-----------23-23-23-23-|
GTR Gb|-----17-16-|-----17-16/-------------|-----17-16/------------|    
 2  Db|-(3)-------|-(3)--------------------|-(3)-------------------|              
    Ab|-(3)-------|-(3)--------------------|-(3)-------------------|
    Eb|-(1)-------|-(1)------- 2 ----------|-(1)--------- 3 -------|

    Eb|----|
    Bb|----|
GTR Gb|----|    
1+2 Db|-3--|              
    Ab|-3--|
    Eb|-1--|
        PM


    Eb|----- x3 -----|----- x1 ------|
    Bb|--------------|---------------|
GTR Gb|-10-----------|---------------| x2    
1+2 Db|-10-----------|---------------|              
    Ab|-8-----4------|-3------2------|
    Eb|-------4------|-3------2------|

- - - - - - - - - - - - - - - - - - - - - - 

    Eb|------------------------------|
    Bb|------------------------------|
GTR Gb|---10\9---9\8---8\7-----6\5-6-|    
1+2 Db|------------------------------|              
    Ab|---8-\7---7\6---6\5-----4-4-4-|
    Eb|-0------0-----0-----0-0-------|
       PM     PM    PM     P M

    Eb|-------------------------------------|
    Bb|-------------------------------------|
GTR Gb|---10\9---9\8-7/8-7----6----5----4-4-|    
1+2 Db|-------------------------------------|              
    Ab|---8-\7---7\6-5/6-5----4----3----2-2-|
    Eb|-0------0-----------00---00---00-----|
       PM      PM          PM   PM   PM

    Eb|-----------------------------------|
    Bb|-----------------------------------|
GTR Gb|---10\9---9\8----------------------|    
1+2 Db|-----------------------------------|              
    Ab|-0-8-\7---7\6--9--8--4---8---4---7-|
    Eb|-0------0------9--8--4---8---4---7-|
       PM     PM    

Repeat last 3 bars
- - - - - - - - - - - - - - - - - - - -  - 

    Eb|-----------------------------------|
    Bb|-----------------------------------|
GTR Gb|-------4BD-4BD--7h8h9h10p9p8p7-4p0-|    
1+2 Db|-3---2-----------------------------|              
    Ab|-3---2-----------------------------|
    Eb|-1---0-----------------------------|

    Eb|----------------|
    Bb|----------------|
GTR Gb|-----4-----4----|    
1+2 Db|-----3-----3----|              
    Ab|-3-3-3-3-3-3-3--|
    Eb|-1-1-1-1-1-1-1--|
        P M   P M   PM

    Eb|-------------------------------|
    Bb|-------------------------------|
GTR Gb|-------4BD-4BD--7---8---10---8-|    
1+2 Db|-3---2-------------------------|              
    Ab|-3---2----------5---6---8----6-|
    Eb|-1---0-------------------------|

    Eb|-----------------------------------|
    Bb|-----------------------------------|
GTR Gb|-------4BD-4BD--7h8h9h10p9p8p7-4p0-| 1,3    
1+2 Db|-3---2-----------------------------|              
    Ab|-3---2-----------------------------|
    Eb|-1---0-----------------------------|

    Eb|---------------|
    Bb|---------------|
GTR Gb|---------------| 2    
1+2 Db|---------------|              
    Ab|-3-3-3-3-3-3-3-|
    Eb|-1-1-1-1-1-1-1-|
        PM PM PM PM PM

    Eb|---------------0------------|
    Bb|---------------0------------|
GTR Gb|---------------4-(let ring)-|    
1+2 Db|-----3-----3---3------------|              
    Ab|-3-3-3-3-3-3----------------|
    Eb|-1-1-1-1-1-1----------------|
        PM PM PM PM 

    Eb|-------|---------------------------|
    Bb|---1-0-|---------------------------|
GTR Gb|-4-----|-5-5-5-5-5-5-5-5-5-4-4-4-4-|    
1+2 Db|-------|---------------------------|              
    Ab|-- x5 -|---------------------------|
    Eb|-------|---------------------------|

    Eb|-----------------------------------|
    Bb|-----------------------------------|
GTR Gb|-----------------------------------|    
1+2 Db|-----------------------------------|              
    Ab|-1----1-1-2----2-2-2-4-5-4----3----|
    Eb|-1----1-1-2----2-2-2-4-----4--3----|
             P M      P M     P M 

    Eb|-------------------------------------|
    Bb|-------------------------------------|
GTR Gb|-------------------------------------|    
 1  Db|-------------------------------------|              
    Ab|-22222222-55555555-44444444-77777777-|
    Eb|-------------------------------------|

    Eb|-------------------------------------|
    Bb|-------------------------------------|
GTR Gb|-------------------------------------|    
 2  Db|-33333333-66666666-55555555-88888888-|              
    Ab|-------------------------------------|
    Eb|-------------------------------------|

    Eb|-----------------------------|
    Bb|-----------------------------|
GTR Gb|--------7--4---------7--4--6-|    
1+2 Db|-----------------------------|              
    Ab|-5-4-3--5--3--5-4-3--5--2--4-|
    Eb|-3-2-1--------3-2-1----------|
        PM PM        PM PM

    Eb|-----------------------------------|
    Bb|-----------------------------------|
GTR Gb|-----------------------------------|    
1+2 Db|-----------------------------------|              
    Ab|-1----1-1-2----2-2-2-4-5-4----3----|
    Eb|-1----1-1-2----2-2-2-4-----4--3----|
             P M      P M     P M 

    Eb|-------------------------------------|
    Bb|-------------------------------------|
GTR Gb|-44444444-77777777-66666666-33333333-|    
 1  Db|-------------------------------------|              
    Ab|-------------------------------------|
    Eb|-------------------------------------|

    Eb|-------------------------------------|
    Bb|-------------------------------------|
GTR Gb|-------------------------------------|    
 2  Db|-33333333-66666666-55555555-33333333-|              
    Ab|-------------------------------------|
    Eb|-------------------------------------|

    Eb|-----------------------------|
    Bb|-----------------------------|
GTR Gb|--------7--4---------7--4--6-|    
1+2 Db|-----------------------------|              
    Ab|-5-4-3--5--2--5-4-3--5--2--4-|
    Eb|-3-2-1--------3-2-1----------|
        PM PM        PM PM

    Eb|-----------------------------------|
    Bb|-----------------------------------|
GTR Gb|-----------------------------------|    
1+2 Db|-----------------------------------|              
    Ab|-1----1-1-2----2-2-2-4-5-4----3----|
    Eb|-1----1-1-2----2-2-2-4-----4--3----|
             P M      P M     P M 

    Eb|-------------------------------------|
    Bb|-------------------------------------|
GTR Gb|-------------------------------------|    
 1  Db|-------------------------------------|              
    Ab|-22222222-55555555-44444444-77777777-|
    Eb|-------------------------------------|

    Eb|-------------------------------------|
    Bb|-------------------------------------|
GTR Gb|-------------------------------------|    
 2  Db|-33333333-66666666-55555555-88888888-|              
    Ab|-------------------------------------|
    Eb|-------------------------------------|

    Eb|-----------------------------|
    Bb|-----------------------------|
GTR Gb|--------7--4---------7--4--6-|    
1+2 Db|-----------------------------|              
    Ab|-5-4-3--5--2--5-4-3--5--2--4-|
    Eb|-3-2-1--------3-2-1----------|
        PM PM        PM PM

    Eb|-----------------------------------|
    Bb|-----------------------------------|
GTR Gb|-----------------------------------|    
1+2 Db|-----------------------------------|              
    Ab|-1----1-1-2----2-2-2-4-5-4----3----|
    Eb|-1----1-1-2----2-2-2-4-----4--3----|
             P M      P M     P M 

    Eb|---------------------------------------------|
    Bb|---------------------------------------------|
GTR Gb|-77777777-1010101010101010-99999999-66666666-|    
 1  Db|---------------------------------------------|              
    Ab|---------------------------------------------|
    Eb|---------------------------------------------|

    Eb|-------------------------------------|
    Bb|-------------------------------------|
GTR Gb|-------------------------------------|    
 2  Db|-66666666-99999999-88888888-55555555-|              
    Ab|-------------------------------------|
    Eb|-------------------------------------|

    Eb|---------------------|
    Bb|---------------------|
GTR Gb|--------7-6-7-6-7----|    
1+2 Db|---------------------|              
    Ab|-3-4-3--5-4-5-4-5----|
    Eb|-1-2-1---------------|
        PM PM   

    Eb|------------------------------|
    Bb|------------------------------|
GTR Gb|---10\9---9\8---8\7-----6\5-6-|    
1+2 Db|------------------------------|              
    Ab|---8-\7---7\6---6\5-----4-4-4-|
    Eb|-0------0-----0-----0-0-------|
       PM     PM     PM    P M

    Eb|---------------------------------------|
    Bb|---------------------------------------|
GTR Gb|---11\10---10\9-8/9-8----7----6----5-5-|    
1+2 Db|---------------------------------------|              
    Ab|---9-\8----8-\7-6/7-6----5----4----3-3-|
    Eb|-0-------0-----------00----00---00-----|
       PM      PM           PM    PM   PM

    Eb|-----------------------------------|
    Bb|-----------------------------------|
GTR Gb|---10\9---9\8----------------------|    
1+2 Db|-----------------------------------|              
    Ab|-0-8-\7---7\6--9--8--4---8---4---7-|
    Eb|-0------0------9--8--4---8---4---7-|
       PM     PM    

    Eb|------------------------------|
    Bb|------------------------------|
GTR Gb|---10\9---9\8---8\7-----6\5-6-|    
 1  Db|------------------------------|              
    Ab|---8-\7-0-7\6---6\5-----4-4-4-|
    Eb|-0------0-----0-----0-0-------|
       PM     PM    PM     P M

    Eb|-----------------------------|
    Bb|-----------------------------|
GTR Gb|---10\9---9\8---8\7-----/16--|    
 2  Db|-----------------------------|              
    Ab|---8-\7---7\6---6\5----------|
    Eb|-0------0-----0-----0-0------|
       PM     PM    PM     P M

    Eb|-------------------------------------|
    Bb|-------------------------------------|
GTR Gb|---10\9---9\8-7/8-7----6----5----4-4-|    
1+2 Db|-------------------------------------|              
    Ab|---8-\7---7\6-5/6-5----4----3----2-2-|
    Eb|-0------0-----------00---00---00-----|
       PM     PM           PM   PM   PM

    Eb|----------------|
    Bb|-8--------------|
GTR Gb|-12-------------|    
1+2 Db|-0---(let ring)-|              
    Ab|-10-------------|
    Eb|----------------|

    Eb|---- x4 -----|-------------------------0--|
    Bb|-------------|-------------------------0--|
GTR Gb|-13-13-13-13-|-13-13-13-13-12--10--12--13-|    
1+2 Db|-12-12-12-12-|-12-12-12-12-12--12--12--0--|              
    Ab|-12-12-12-12-|-12-12-12-12-12--12--12-----|
    Eb|-10-10-10-10-|-10-10-10-10-10--10--10-----|

    Eb|---------------------------|
    Bb|-----------------8--9------|
GTR Gb|-15-15-15-15-13------------|    
1+2 Db|-13-13-13-13-13------------|              
    Ab|-13-13-13-13-13------------|
    Eb|-11-11-11-11-11------------|

    Eb|-------------------------------------------------------|
    Bb|-------------------------------------------------------|
GTR Gb|-15p13----12-------------15p13-------------15p13---/20-|    
 1  Db|-------------------------------------------------------|              
    Ab|-------------------------------------------------------|
    Eb|-------------------------------------------------------|

    Eb|---------------------------------------------------------|
    Bb|---------------------------------------------------------|
GTR Gb|-------------12h13p10-15p13------12h13p10-13p12------/20-|    
 2  Db|---------------------------------------------------------|              
    Ab|---------------------------------------------------------|
    Eb|---------------------------------------------------------|

END

Suggest correction
Give kudos to tab author, rate the tab!
1 2 3 4 5
comments
print report bad tab
guest
You may want to rate the tab now too:
select rating
Wanna post a correction for this tab? Suggest correction