Oops, an error
Loading. Please wait.

Calpol Tab

340 views 27 this week
2 commentsread comments
1 2 3 4 5
x 3
add to favorites
launch autoscroll
font size
0
reset
how to read this tab
guitar tuner
Autoscroll
slow
fast
+/-
esc
set tempo
stop
Help us to improve Ultimate-Guitar.com Take our survey!
×
Author
Difficulty
About this tab version
Chords as well as tabs, includes solo, includes timestamps. Was this info helpful? Yes No
Calpol by Cavetown. I'll put the chords as well as the tab, and with a bit of luck I'll be able to work out 
the solo too.



Intro:

e|-----0-------0-------0--2--2h3p2-----|
B|-----1-------1-------0--1--------1---|
G|-----2--0----0-------0--2----------0-|
D|--3--3-------2-------2--0------------|
A|----------3--3--3-2--2---------------|
E|---------------------0---------------| x4 for the intro, I think, but I could be wrong.

The chords for this bit are F, C, Em, and D7 if you can't do all the weird picking.

This, and slight variations on it, play all the way through.


Solo at 1:20:

e|---------------------------------------------------------------------|
B|--10h12-10/8------8------------------------10h12-10/8-8--8/10--------|
G|-------------9--9---7--7-7p5-7--7/9-7/5-----------------------9-9b10-|
D|----------------------------------------5----------------------------|
A|---------------------------------------------------------------------|
E|---------------------------------------------------------------------|

The second solo at 2:09 has a harmonised version of the same solo layered over the top but I can't work that
out yet so I'll add it in later maybe.

Other than that it's just the same chords all the way through so it's not difficult.


Legend:

h - hammer on
p - pull off
/ - slide
Suggest correction
Give kudos to tab author, rate the tab!
1 2 3 4 5
comments
print report bad tab
2 comments total.
0 reply
loseronland 68 Nov 20, 2016 08:26 PM

everything is correct except the solo that happens at 1:20

0 reply
writingtentac1 58 Nov 20, 2016 08:58 PM

what's wrong with it?

guest
You may want to rate the tab now too:
select rating
Wanna post a correction for this tab? Suggest correction