Oops, an error
Loading. Please wait.

Dysphoric ukulele

version 1
version 1

Whole song

  • Dysphoric including picking and strumming patterns.
  • It's ya boi cavetown and his cool song.
3,949 views 153 this week
4 commentsread comments
1 2 3 4 5
x 16
add to favorites
×
Save as Personal and add changes to this tab that will be seen only by you. Learn more ›
×
You can save this tab as Personal to edit and correct it or add notes. All changes will be seen only by you. Learn more »
launch autoscroll
font size
0
reset
transpose
0
reset
simplify chords
display chords
guitar tuner
edit
Autoscroll
slow
fast
+/-
esc
set tempo
stop
Author
Difficulty
intermediate
About this tab version
Dysphoric including picking and strumming patterns. Was this info helpful? Yes No
Strumming
There is no strumming pattern for this song yet. and get +5 IQ
hello this is my first tab so sorry if its meh
THIS IS ALL BY EAR SO IT MIGHT NOT BE THE EXACT SAME. CORRECTIONS ARE V MUCH APPRECIATED

the picking pattern for this song is kinda difficult so if you want you can just strum DDUUDU

[CHORDS]

Am 
A|--3-------|   
E|----------|         
C|----------|         
G|--2-------| 

F 
A|--3-------| 
E|--1-------|         
C|----------|         
G|--2-------| 

C5 (not actually C5)
A|------5---| 
E|----------|         
C|----------|         
G|----------| 


Play this picking pattern with the chords

A|-------x---|      
E|----x------|         
C|--x--------|         
G|-------x---| 



[Intro]

A|-------3----------3----------2----------2----------5----------5---------2---------2-----|
E|----0----------0----------0----------0----------0----------0---------0---------0--------|
C|--0----------0----------0----------0----------0----------0---------0---------0----------|
G|-------0----------0----------0----------0----------0----------0---------0---------0-----|



[Verse]
C           Cmaj7     C5    Cmaj7
Don't let me see what I am
Am                      Fm
Cause I can't stand it, no I can't
C           Cmaj7     C5     Cmaj7
I'm coming back round again
Am                       Fm
It's been over a year, I thought this was the end



[Chorus]

Am              F      
But now I don't remember comfort
C                    G6
Because what I am is what I'm not
Am                  F      
I don't belong here it's just hopeless
C                    G6
Find me a way out if you love me at all

N.C.
2, 3, 4...

[repeat intro]

[Verse 2]
C           Cmaj7          C5      Cmaj7
Don't let me hear what they say
Am                     Fm
Cause I can't stand it everyday
C           Cmaj7            C5    Cmaj7
I'm thinking that I should leave now
Am                           Fm
And I don't think I'm coming back this time


[Chorus]

Am              F 
But now I don't remember comfort
C                    G6
Because what I am is what I'm not
Am                  F 
This phantom skin, it's weird to live in
C                    G6
So find me a way out if you love me at all

[Outro]

A|-------3----------3----------2----------2----------5----------5---------2---------2-----|
E|----0----------0----------0----------0----------0----------0---------0---------0--------|
C|--0----------0----------0----------0----------0----------0---------0---------0----------|
G|-------0----------0----------0----------0----------0----------0---------0---------0-----|



************************************

| x  Dead note

************************************
Suggest correction
Creating personal tab
Creating personal tab
You can edit any tab online and save it as your Personal.

You can edit, replace or remove any tab part or add personal notes – all changes will be seen only by you.

Personal tabs can be accessed anytime from any device, even offline.
Learn more »
comments
print report bad tab
4 comments total. Showing first comments.
0 reply
ashlin1025 14 Apr 10, 2017 09:45 PM

i think i the strumming pattern is everything that is posted but play the e string after you simultaneously play the g and a strings

0 reply
ashlin1025 14 Apr 10, 2017 11:39 PM

also, based on his recent video of him playing it, you play the Fm twice then move your finger on the a string from the third fret to the second

0 reply
janice_ 25 May 07, 2017 03:00 PM

The last two lines should be "this phantom skin, it's weird to live in. So find me a way out if you love me at all"

guest
You may want to rate the tab now too:
select rating
Wanna post a correction for this tab? Suggest correction