Oops, an error
Loading. Please wait.

Dysphoric ukulele

version 2
version 2

Whole song

  • Dysphoric including picking and strumming patterns.
  • It's ya boi cavetown and his cool song.
889 views 27 this week
no commentswrite comment
1 2 3 4 5
2 more votes to show rating
add to favorites
×
Save as Personal and add changes to this tab that will be seen only by you. Learn more ›
×
You can save this tab as Personal to edit and correct it or add notes. All changes will be seen only by you. Learn more »
launch autoscroll
font size
0
reset
transpose
0
reset
display chords
guitar tuner
edit
Autoscroll
slow
fast
+/-
esc
set tempo
stop
Author
Difficulty
intermediate
About this tab version
It's ya boi cavetown and his cool song. Was this info helpful? Yes No
Strumming Is this strumming pattern correct? Yes No
120 bpm
1
&
2
&
3
&
4
&
Listen
Ok so I looked at a lot of other tabs ad they didn't seem quite right so I decided I'd 
watch cavetown play
this and try to figure it out from there.
Idk many chord names so I'm just gonna make tabs and show what fret the notes are on....(sorry)

[Verse]
A|------3--------------3----|----------2--------------2------|---------5-------------5------|
E|---0-----0------0-------0-|------0------0------0--------0--|-----0-------0------0------0--|
C|0------------0------------|---0-------------0--------------|--0--------------0------------|
G|------0--------------0----|----------0--------------0------|---------0-------------0------|

A|-------3---------------3-----|--------3------------3--------------3------------3-----|
E|----0-----0--------0------0--|----1------1------1------1------1-------1-----1------1-|
C|-0--------------0------------|--0------------0-------------0-------------0-----------|
G|-------0---------------0-----|--------2------------2--------------2------------2-----|

A|--------3-------------3----|--------2------------2-----|
E|----1------1------1------1-|-----1------1-----1-----1--|
C|-0-------------0-----------|--0------------0-----------|
G|--------1-------------1----|--------1------------1-----|

[Chorus]
A|------3-----------3-----------3------------3----|--------3-------------3--------------3-------------3----|
E|---0-----0-----0-----0-----0-----0-----0------0-|----1------1------1-------1-------1------1------1-----1-|
C|-0----------0-----------0-----------0-----------|-0-------------0---------------0-------------0----------|
G|------2-----------2-----------2------------2----|--------2-------------2--------------2-------------2----|

A|-------3------------3------------3-----------3------|-------2------------2-----------2-----------2----|
E|----0-----0------0------0-----0-----0-----0------0--|----0-----0------0------0----0-----0-----0-----0-| x2
C|-0------------0-------------0----------0------------|--2-----------2------------2----------2----------|
G|-------0------------0------------0-----------0------|-------0------------0-----------0-----------0----|

For the second verse and chorus you just repeat all that^^^^ but instead you strum the 
chords, not pick them

for the strumming pattern I'm pretty sure it's something like...
D  D  U  D  U  D  U
1& 2  &  3  &  4  &

[To finish the song you go back to fingerpicking....
]
A|------3--------------3----|----------2--------------2------|---------5-------------5------|
E|---0-----0------0-------0-|------0------0------0--------0--|-----0-------0------0------0--|
C|0------------0------------|---0-------------0--------------|--0--------------0------------|
G|------0--------------0----|----------0--------------0------|---------0-------------0------|

A|-------3-------|
E|----0-----0----|
C|-0-------------|
G|-------0-------|

            
            
Suggest correction
Creating personal tab
Creating personal tab
You can edit any tab online and save it as your Personal.

You can edit, replace or remove any tab part or add personal notes – all changes will be seen only by you.

Personal tabs can be accessed anytime from any device, even offline.
Learn more »
Give kudos to tab author, rate the tab!
1 2 3 4 5
comments
print report bad tab
guest
You may want to rate the tab now too:
select rating
Wanna post a correction for this tab? Suggest correction