Oops, an error
Loading. Please wait.

Switch Acoustic ukulele

1,711 views 45 this week
1 commentread comment
1 2 3 4 5
x 11
add to favorites
×
Save as Personal and add changes to this tab that will be seen only by you. Learn more ›
×
You can save this tab as Personal to edit and correct it or add notes. All changes will be seen only by you. Learn more »
launch autoscroll
font size
0
reset
transpose
0
reset
simplify chords
display chords
guitar tuner
edit
Autoscroll
slow
fast
+/-
esc
set tempo
stop
Author
Difficulty
Strumming Are these strumming patterns correct? Yes No
Intro,Chorus, and Bridge 150 bpm
1
&
2
&
3
&
4
&
5
&
6
&
7
&
8
&
Listen
Verses 150 bpm
1
&
2
&
3
&
4
&
5
&
6
&
7
&
8
&
Listen
Youtube link to the song: https://www.youtube.com/watch?v=lx3AGXU6mnk
Chords used in this song:
    G            Am          Bm        Bsus4         Cm
A|--2------------0-----------5-----------7--- -------3----|
E|--3------------0-----------7-----------7-----------3----|
A|--2----------- 0-----------6-----------6-----------3----|
g|--0------------------------------------------------5----|

[Intro]
G Am Bm Bsus4

[Verse]
G            Am               Bm                                   |
Something   senile, stale, infected. Just can't shake it off,      |
                                                                   | Let ring (*: strum and mute instantly)
G            Am               Bm                      Bm *         |
wonder if   this was self inflicted, or if we were meant to fall.  |
G                     Am 
Every single time you try and make me change myself, 
Bm **                                                              |
I can't help to think that maybe change might be a nice hell,      | **: Let ring
G                          Am
the kind of comfort that you get from dying, i dwell- 
Bm 
way too much on what you say and not enough on my health.

[Pre-chorus]
(D)= Down strum. (U)= Up strum.
    G           Am          Bm    Bsus4 Bm           G          Am          Bm      Bsus4  (D)(U)
A|--------2-----------0-----------5--7--5--------|--------2-----------0-----------5--7------7--7--X-|
E|-----3-----3-----0-----0-----7-----------7-----|-----3-----3-----0-----0-----7------------7--7--X-|
A|--2-----------0-----------6-----------------6--|--2-----------0-----------6---------------6--6--X-|
g|-----------------------------------------------|------------------------------------------------X-|

[Chorus]
G            Am  Bm           Bsus4
  I turn you on,   but only when there's something wrong, 
G            Am  Bm              Bsus4
it won't be long   until you get all that you want, 
G            Am  Bm            Bsus4  
I turned you on,   was something in the way i sung, 
G            Am          Cm *                             |
but now you're gone and I know that you'll be strong.     | *: Just down strums

[Bridge 1]
G Am Bm Bsus4

[Verse 2]
G           Am         Bm                            |
 So it seems I'm so addicted                         |
                                                     |Let ring
              G            Am              Bm        |
to how you're wanting me to be, I'm so conflicted.   |

Bsus4 (strum and mute) G           Am                   Bm
Sometimes              I don't know how I'm supposed to fix it. 
G            Am               Bm
Sometimes you make me feel so restricted, I don't dig it. 

[Pre-chorus]
(D)= Down strum. (U)= Up strum.
    G           Am          Bm    Bsus4 Bm           G          Am          Bm      Bsus4  (D)(U)
A|--------2-----------0-----------5--7--5--------|--------2-----------0-----------5--7------7--7--X-|
E|-----3-----3-----0-----0-----7-----------7-----|-----3-----3-----0-----0-----7------------7--7--X-|
A|--2-----------0-----------6-----------------6--|--2-----------0-----------6---------------6--6--X-|
g|-----------------------------------------------|------------------------------------------------X-|

[Chorus]
G            Am  Bm           Bsus4
  I turn you on,   but only when there's something wrong, 
G            Am  Bm              Bsus4
it won't be long   until you get all that you want, 
G            Am  Bm            Bsus4  
I turned you on,   was something in the way i sung, 
G            Am          Cm *                             |
but now you're gone and I know that you'll be strong.     | *: Just down strums

[Bridge 2]
                                                                              (1)   (2) 
A|--------2-----------0-----------5--7------|--------2-----------0-------------|--3--|--3--|  |  (1)=1st time
E|-----3-----3-----0-----0-----7------------|-----3-----3-----0-----0--------3-|-----|--3--|  |x2
A|--2-----------0-----------6---------------|--2-----------0--------------3----|-----|--3--|  |  (2)=2nd time
g|------------------------------------------|--------------------------5-------|-----|--5--|  |
    G           Am          Bm       Bsus4     G           Am          Cm

(1): Oh,             we could be            Some-where      beyond   the trees,
(2): so              easily,                so difficult              for me.  

G   Am       Bm    Bsus4    G      Am       Cm
Oh, we could be        somewhere beyond the beach, 
G   Am   Bm        Bsus4  G          Am         Cm
so easily,             so difficult, difficult, difficult for me.

[Chorus]
G            Am  Bm           Bsus4
  I turn you on,   but only when there's something wrong, 
G            Am  Bm              Bsus4
it won't be long   until you get all that you want, 
G            Am  Bm            Bsus4  
I turned you on,   was something in the way i sung, 
G            Am          Cm *                             |
but now you're gone and I know that you'll be strong.     | *: Just down strums

[Outro] 
(Slowing dows as you approach the end)
G Am Bm Bsus4 G
Suggest correction
Creating personal tab
Creating personal tab
You can edit any tab online and save it as your Personal.

You can edit, replace or remove any tab part or add personal notes – all changes will be seen only by you.

Personal tabs can be accessed anytime from any device, even offline.
Learn more »
comments
print report bad tab
1 comment total.
0 reply
wesdrinksbleach 10 Apr 23, 2017 02:52 PM

Bless this, I was looking to play the same chords and stuff from his video and so I'm really happy you made this!!!

guest
You may want to rate the tab now too:
select rating
Wanna post a correction for this tab? Suggest correction