Oops, an error
Loading. Please wait.

Exagerado bass

by Cazuza
2,620 views 6 this week
no commentswrite comment
1 2 3 4 5
2 more votes to show rating
add to favorites
×
Save as Personal and add changes to this tab that will be seen only by you. Learn more ›
×
You can save this tab as Personal to edit and correct it or add notes. All changes will be seen only by you. Learn more »
launch autoscroll
font size
0
reset
guitar tuner
edit
Autoscroll
slow
fast
+/-
esc
set tempo
stop
Author
Difficulty
Música: Exagerado
Artista: Cazuza
Site Oficial: http://www.cazuza.com.br

Feita por Bernardo HIT

Legendas:
* - Nota dura mais um tempo
/ - Slide para cima
\ - Slide para baixo
___

0:01

Introdução (após a batida da bateria):

G |-----------------------|
D |-----------------------| x 4
A |-----------------------|
E |--3333333333333333333--|

0:14

|------|
|------|
|------|
|--3\--|

0:15

G |----------------------|
D |--------5*------------| x 4
A |------------5*----3*--|
E |--3-3-----------------|

0:29

Amor da minha vida, daqui até a eternidade...

G |--------------------------------------------|
D |--------------------------------------------| x 2
A |----------------------3\5*----3---3-3--3----|
E |--3-3-3-3-3-3-3-3------------------------3--|

0:36

...nossos destinos foram traçados na maternidade...

G |-----------------------------------------------------|
D |-----------------------------------------------------|
A |-------------------5-5-5-5-5-5-5-5--3-3-3-3-3-3-3-3--|
E |--0-0-0-0-0-0-0-0------------------------------------|

0:41

G |------------|
D |------------|
A |--0*--2--5--|
E |------------|

0:43

Paixão cruel, desenfreada...

G |-----------------------------------------------|
D |-----------------------------------------------|x 2
A |-------------------------3-4-5*----3---3-3--3--|
E |--3-3-3-3-3-3-3-------------------------3------|

0:50

...pra  foram traçados na maternidade...

G |---------------------------------------------------5-----5----------|
D |--------------------------------------------------------------------|
A |-------------------5-5-5-5-5-5-5-5--3-3-3-3-3-3-33---33----3-3-3-3--|
E |--0-0-0-0-0-0-0-0---------------------------------------------------|

0:57

Refrão:

...Exagerado...

G |-------------------------------------------------------------------------------------|
D |-------------------------------------------------------------------------------------|
A |--3-33--3-33--3-55--5-55--5-----55--5-33--3-33--3------------55--5-55--5-33-3-33-3\--|
E |--------------------------33--3------------------00--0-00--0-------------------------|

1:09

G |------------|
D |------------|
A |--0*--2--5--|
E |------------|

1:11

Eu nunca mais vou respirar...

G |-----------------------------------------------------|
D |-----------------------------------------------------| x 2
A |----------------------3-4-5-5-5-5----3-3-3-3-3-3-----|
E |--3-3-3-3-3-3-3-3---------------------------------3--|

1:18

...eu posso até morrer de fome...

G |----------------------------------------------------------------------|
D |----------------------------------------------------------------------|
A |-------------------5-5-5-5-5-5-5-5--3-3-3-3-3-3-3-3-3-3-3-3-3-3-3-3\--|
E |--0-0-0-0-0-0-0-0-----------------------------------------------------|

1:25 (SLAP)

...por você eu largo tudo...

G |---------------4*-----------------7*---5--|
D |------2*-----------------3*---------------|
A |----------2-2-----------------5-5---------|
E |--0-0--------------0-1-1----0-------------|

1:32 (SLAP)

...até nas coisas mais banais...

G |---------------4*------------------7*-----------|
D |------2*-----------------3*---------------------|
A |-----------2-2-----------------5-5-----5-5-5-5--|
E |--0-0----0----------0-1-1-----0-----------------|

1:41

...Exagerado...

G |-------------------------------------------------------------------------------------|
D |-------------------------------------------------------------------------------------|
A |--3-33--3-33--3-55--5-55--5-----55--5-33--3-33--3------------55--5-55--5-33-3-33-3\--|
E |--------------------------33--3------------------00--0-00--0-------------------------|

1:53

G |------------|
D |------------|
A |--0*--2--5--|
E |------------|

1:55

G |-----------------------|
D |-----------------------| x 4
A |-----------------------|
E |--3333333333333333333--|

2:09

Solo

G |--------------------------|
D |--------5*----------------| x 2
A |------------3-4-5*----3*--|
E |--3-3---------------------|

2:16

G |----------------------------------------------------------------------|
D |----------------------------------------------------------------------|
A |-------------------5-5-5-5-5-5-5-5--3-3-3-3-3-3-3-3-3-3-3-3-3-3-3-3\--|
E |--0-0-0-0-0-0-0-0-----------------------------------------------------|

2:23 (SLAP)

...por você eu largo tudo...

G |---------------4*-----------------7*--------|
D |------2*-----------------3*-----------------|
A |----------2-2-----------------5-5-----------|
E |--0-0--------------0-1-1----0-----------0/--|

2:30 (SLAP)

...até nas coisas mais banais...

G |---------------4*------------------7*--------------|
D |------2*-----------------3*------------------------|
A |-----------2-2-----------------5-5--------5-5-5-5--|
E |--0-0----0----------0-1-1-----0--------0-----------|

2:39

...Exagerado...

G |-------------------------------------------------------------------------------|
D |-------------------------------------------------------------------------------|
A |--3-33--3-33--3-55--5-55--5-----55--5-33--3-33--3-----------5555555-53333333\--|
E |--------------------------33--3-------------------00000000-0-------------------|

2:52

G |------------|
D |------------|
A |--0*--2--5--|
E |------------|

2:53

...jogado aos seus pés...

G |------------------------------------------------------------------------|
D |------------------------------------------------------------------------|
A |--33333333-3555555-5------55--5-3333333--3-----------5555555--53333333--|
E |--------------------33--3------------------00000000-0-------------------|

3:05

G |------------|
D |------------|
A |--0*--2--5--|
E |------------|

3:07

...jogado aos seus pés...

G |--------------------------------------------------------------------------|
D |--------------------------------------------------------------------------|
A |--333333333-555555-5--------555555-3333333-3------------5555555-53333333--|
E |--------------------333333-3----------------00000000-0--------------------|

3:19

G |-------------|
D |-------------|
A |--000--2--5--|
E |-------------|

3:21

G |-------------------------------------------------------------------------|
D |-----------------------------------------3-4-----------------------------|
A |--333333333-555555-5--------555555-333345---5----------5555555-53333333--|
E |--------------------333333-3-----------------00000000-0------------------|

3:24

G |------------|
D |------------|
A |--0*--2--5--|
E |------------|

FIM
___

DIVIRTA-SE !
______
Acredito que ela está 99% correta, mas caso alguém tenha uma dúvida ou algumas dicas 
entrar em contato.
Feita por Bernardo HIT
______

            
            
Suggest correction
Creating personal tab
Creating personal tab
You can edit any tab online and save it as your Personal.

You can edit, replace or remove any tab part or add personal notes – all changes will be seen only by you.

Personal tabs can be accessed anytime from any device, even offline.
Learn more »
Give kudos to tab author, rate the tab!
1 2 3 4 5
comments
print report bad tab
guest
You may want to rate the tab now too:
select rating
Wanna post a correction for this tab? Suggest correction