Oops, an error
Loading. Please wait.

O Tempo Nao Para Bass Tab

1,817 views 1 this week
no commentswrite comment
1 2 3 4 5
please rate
add to favorites
launch autoscroll
font size
0
reset
guitar tuner
Autoscroll
slow
fast
+/-
esc
set tempo
stop
Help us to improve Ultimate-Guitar.com Take our survey!
×
Tabbed by Matt Rodrigues.

G|--------------------------------------------|
D|--------------------------------------------|
A|--------------------------------------------|
E|-0~~------0~~----0-0-0-0-5~~--0-0-0-0-5~~---|

G|--------------------------------------------|x3
D|--------------------------------------------|x3
A|----------------------5~55-5~---------------|x3
E|--0~00-0~--5~55-5~--------------0~00-0~-----|x3

G|--------------------------------------------|
D|--------------------------------------------|
A|-------7-5~------------5h7-5----------------|
E|-5-7-8----------0~~----------7-6-5----------|

G|-----------------------------------||---------|
D|o---------------------------------o||---------|
A|o-----------------5~55-6~66-3~33-3o||5~55-6~66|
E|-3~-33-3--5~55-5-------------------||---------|

G|--------------------------------------------|x2
D|--------------------------------------------|x2
A|--------------------------------------------|x2
E|----------0-0-0-0-5~~--0-0-0-0-5~~----------|x2

G|--------------------------------------------|x3
D|--------------------------------------------|x3
A|----------------------5~55-5~---------------|x3
E|--0~00-0~--5~55-5~--------------0~00-0~-----|x3

G|--------------------------------------------|
D|--------------------------------------------|
A|-------7-5~------------5h7-5----------------|
E|-5-7-8----------0~~----------7-6-5----------|

G|-----------------------------------||---------|
D|o---------------------------------o||---------|
A|o-----------------5~55-6~66-3~33-3o||5~55-6~66|
E|-3~-33-3--5~55-5-------------------||---------|

G|----------------------------------------------------------------------|
D|----------------------------------------------------------------------|
A|------------------5~55-6~66-3~33-3~------------------5~55-5--3~33-3~--|
E|-3~33-3--5~55-5--------------------0~00-0~--5~55-5~-------------------|

G|--------------------------------------------|
D|--------------------------------------------|
A|-------7-5~------------5h7-5----------------|
E|-5-7-8----------0~~----------7-6-5----------|

G|-----------------------------------||---------|
D|o---------------------------------o||---------|
A|o-----------------5~55-6~66-3~33-3o||5~55-6~66|
E|-3~-33-3--5~55-5-------------------||---------|

G|--------------------------------------------|x3
D|--------------------------------------------|x3
A|--------------------------------------------|x3
E|----------0-0-0-0-5~~--0-0-0-0-5~~----------|x3
Suggest correction
Give kudos to tab author, rate the tab!
1 2 3 4 5
comments
print report bad tab
guest
You may want to rate the tab now too:
select rating
Wanna post a correction for this tab? Suggest correction