Oops, an error
Loading. Please wait.

Curami bass

by CCCP
2,777 views 1 this week
1 commentread comment
1 2 3 4 5
1 last vote to show rating
add to favorites
×
Save as Personal and add changes to this tab that will be seen only by you. Learn more ›
×
You can save this tab as Personal to edit and correct it or add notes. All changes will be seen only by you. Learn more »
launch autoscroll
font size
0
reset
guitar tuner
edit
Autoscroll
slow
fast
+/-
esc
set tempo
stop
CCCP FEDELI ALLA LINEA - CURAMI
ALBUM: Affinità Divergenze fra il compagno Togliatti e noi. Del conseguimento della 
età (1986)
BASSIST: UMBERTO NEGRI

INTRO

E -10-10-10-10-10-10-10-10-7-7-7-7-7-7-7-7-2-2-2-2-2-2-2-2-2-2-2-2-2-2-2-2--|
A --------------------------------------------------------------------------|
D --------------------------------------------------------------------------|
G --------------------------------------------------------------------------|

VERSE

E --0-0-0--0-0-0----2-2-2--2-2-2----|
A ----------------------------------|
D ----------------------------------|
G ----------------------------------|

REPEAT THE INTRO ALTERNATE WITH VERSE

BRIDGE

E -----------|
A --5-5-5-5--|
D -----------|
G -----------|

E ----------------------------|
A --5-----5----5----5----6----|
D ----------------------------|
G -----7-----7----7----7---8--|

VARIATION

E ----------------------------------------------|
A --5---5---5---2---2---2-----------------------|
D ----7---7-------4---4-----4---4----4----4-----|
G ----------------------------6----6----6----6--|

BACK TO THE VERSE+INTRO


JAH WOBBLE IS GOD!!!

FEDELI ALLA LINEA ANCHE QUANDO NON C'è!

            
            
Suggest correction
Creating personal tab
Creating personal tab
You can edit any tab online and save it as your Personal.

You can edit, replace or remove any tab part or add personal notes – all changes will be seen only by you.

Personal tabs can be accessed anytime from any device, even offline.
Learn more »
Give kudos to tab author, rate the tab!
1 2 3 4 5
comments
print report bad tab
1 comment total.
0 reply
latorami 48 Mar 18, 2017 12:29 PM

curamI CuraMI cuRAMIIIIIIIIIIIIIIIIi
awesome song

guest
You may want to rate the tab now too:
select rating
Wanna post a correction for this tab? Suggest correction