Oops, an error
Loading. Please wait.

Prendedor tab

111 views 1 this week
no commentswrite comment
1 2 3 4 5
3 more votes to show rating
add to favorites
×
Save as Personal and add changes to this tab that will be seen only by you. Learn more ›
×
You can save this tab as Personal to edit and correct it or add notes. All changes will be seen only by you. Learn more »
launch autoscroll
font size
0
reset
how to read this tab
guitar tuner
edit
Autoscroll
slow
fast
+/-
esc
set tempo
stop
Excelente rola de Cecilia, **disfrutenla**

Intro  (la segunda guitarra va haciendo acordes)

  G#m                  E               F#
e|-----------------------------------------------|
B|-11-12-11----11-----11-12-11----11----11-12-11-|
G|----------13-----13----------13----13----------|
D|-----------------------------------------------|
A|-----------------------------------------------|
E|-----------------------------------------------|

                      G#m                E 
e|-------------------|---------------------------|
B|----11-12-14^(16)14|11-12-11----11-----11-12-11|
G|-13----------------|---------13-----13---------|
D|-------------------|---------------------------|
A|-------------------|---------------------------|
E|-------------------|---------------------------|

     F#
e|----------------------------14^(16)~-----------|
B|----11----11-12-11----11-12--------------------|
G|-13----13----------13--------------------------|
D|-----------------------------------------------|
A|-----------------------------------------------|
E|-----------------------------------------------|


(la rítmica de los verso es así, chequenla bien, 
cada compas es un cambio de acorde con B y F#)
s=silencio de corchea
*=ligado
   _           _          _              _
  | |         | |        | |        |   |   |
|-/-/--silen|-/-/-silen|-/-/-silen|-/-s-/---O---|
                                          *
   _           _          _           _  _
  | |         | |        | |         |   |   |
|-/-/--silen|-/-/-silen|-/-/-silen|-s/-s-/---O---|
                                           *


B                  F#
te espere en la esquina
              B
con presentimiento
            F#
y sentí q andaba mal

B                 F#
te espere en la calle 
             B
acudí a tus padres 
           F#
y nadie sabia más


G#m         E
ésa noche fue en blanco 
B              G#m
cómo la podre olvidar 

(en esta parte la rimica va asi)
   _           _          _         
  | |         | |        | |        
|-/-/--silen|-/-/-silen|-/-/-silen|-solocorcheas|


B           F#
si al amanecer 
                    B
jure hacia el cielo, 
        F#
tu final


  G#m                  E               F#
e|-----------------------------------------------|
B|-11-12-11----11-----11-12-11----11----11-12-11-|
G|----------13-----13----------13----13----------|
D|-----------------------------------------------|
A|-----------------------------------------------|
E|-----------------------------------------------|

                      G#m                E 
e|-------------------|---------------------------|
B|----11-12-14^(16)14|11-12-11----11-----11-12-11|
G|-13----------------|---------13-----13---------|
D|-------------------|---------------------------|
A|-------------------|---------------------------|
E|-------------------|---------------------------|

     F#
e|----------------------------14^(16)~-----------|
B|----11----11-12-11----11-12--------------------|
G|-13----13----------13--------------------------|
D|-----------------------------------------------|
A|-----------------------------------------------|
E|-----------------------------------------------|

***ritica similar a la primera***

B
hoy haz vuelto 
F#
ya me lo dijeron 
B                  F#
se q al fin te buscaré
B           F#             B
pero para darte lo q quiero 
                F#
y tal vez te olvidaré


G#m          E
pero uno no sabe nunca 
B            G#m
mucho menos de pasión

**(esta parte es igual con la ritmica)
B               F#
si al volverte a ver
          B              F# 
yo me quede como prendedor


****SOLO DE GUITARRA ****

****acordes del sólo*****

G#m - E - F# en dos compases


***(seguido, sin la rítmica)

B
hoy haz vuelto 
F#
ya me lo dijeron 
B                  F#
se q al fin te buscaré
B           F#           B
pero para darte lo quiero
                F#
y tal vez te olvidaré

G#m          E
pero uno no sabe nunca 
B             G#m
mucho menos de pasión

***estas partes son con ritmica****
B               F#
si al volverte a ver
         B               F# 
yo me quede como prendedor


G#m          E
pero uno no sabe nunca 
B             G#m
mucho menos de pasión

**estas partes son con ritmica***
B               F#
si al volverte a ver
         B               F#(marcado)
yo me quede como prendedor


Espero q les guste, esta muy fácil, el sólo
aún no lo saco pq tengo una versión en vivo
y no se si sea igual al de estudio, cuando 
tenga la de estudio se los paso
dudas, comentarios, correcciones, a mi mail
jcd_007@

            
            
Suggest correction
Creating personal tab
Creating personal tab
You can edit any tab online and save it as your Personal.

You can edit, replace or remove any tab part or add personal notes – all changes will be seen only by you.

Personal tabs can be accessed anytime from any device, even offline.
Learn more »
Give kudos to tab author, rate the tab!
1 2 3 4 5
comments
print report bad tab
guest
Wanna post a correction for this tab? Suggest correction