Oops, an error
Loading. Please wait.

Forget You Bass Tab

version 1
version 1

Whole song

Interactive

16,740 views 60 this week
3 commentsread comments
1 2 3 4 5
excellent!
x 5
add to favorites
launch autoscroll
font size
0
reset
guitar tuner
Tab Pro tools
  • play this tab
  • loop segment
  • change instrument
  • show fretboard
  • metronome
Autoscroll
slow
fast
+/-
esc
set tempo
stop
Contributor
Difficulty
intermediate
-------------------------------------------------------------------------------
                            Forget You - Cee Lo Green
-------------------------------------------------------------------------------
Tabbed by: nojeremy
E-mail: jeremyyno@gmail.com

The main riff/line is pretty straightforward, but the solo in the other tabs 
might've needed some work in some places. Listen to the song for rhythm 

Tuning:standard
/:slide up
\:slide down
/\:up then down
h:hammer
p:pull
p*:pop
pretty much self explanitory 

Verses/Intro: Line stays the same throughout
G|---------------------------------------------------------------------------|
D|---------------------------------------------------------------------------|
A|-----------3---------------5------5---7---8-------8---10-------------------|
E|---3---5----------3---5------------------------------------8---------------|


Bridge: 
G|-------------9-------------------------------------------------------------|
D|---------9-----9----------------7------------------6/7-5----------5--------|
A|---5/7-----------7----------7-----7------7--6--5--------------/7-----------|
E|----------------------0h5-----------5----------------------3---------------|

G|-----------------9------------------4----5----6---------7h9p7-10-10-11~----|
D|-------------9-----9-----------7--------------------7h9--------------------|
A|---5--6--7-----------7------------2----3----4-----5------------------------|
E|---------------------------0-5------------------------------------------3--|
     p*    p* 
G|---7\----9\------------------5p4-------------------------------------------|
D|-----------------------7h9p7-----5-----------------------------------------|
A|---5\----8\--------5h7----------------0--2--3--4--5------------------------|
E|---------------3---------------------------------------/\1-----------------|
                                           *back into verse line*
G|---------------------------------------------------------------------------|
D|---------------------------------------------------------------------------|
A|-------------------------------------3---------5----5--7--8----8--10-------|
E|---/5---3-3-3333----/15-15-15-15--/\-----3--5-------------------------8----|
comments
print report bad tab
3 comments total.
0 reply
angearchy wrote on February 8 2013, 10:09 pm

looks good. i play on 5-string in different postion. sounds heavier!

0 reply
impiczz wrote on March 30 2013, 12:38 pm

This is really hard, someone please help me!

0 reply
drayden wrote on January 13 2015, 12:53 am

an easier way of doing verse:
Verses/Intro: Line stays the same throughout
G|------------------------------------------------------------------------|
D|------------------------------------------3-------3---5-----------------|
A|-----------3---------------5------3---5-------------------3-------------|
E|---3---5----------3---5-------------------------------------------------|

I want to post or [tab]
guest
You may want to rate the tab now too:
select rating
Please do not post tabs as comments. Select "correction" instead!