Oops, an error
Loading. Please wait.

Probably Worth It tab

10 views 1 this week
no commentswrite comment
1 2 3 4 5
3 more votes to show rating
add to favorites
×
Save as Personal and add changes to this tab that will be seen only by you. Learn more ›
×
You can save this tab as Personal to edit and correct it or add notes. All changes will be seen only by you. Learn more »
launch autoscroll
font size
0
reset
how to read this tab
guitar tuner
edit
Autoscroll
slow
fast
+/-
esc
set tempo
stop
Celebration Guns
Chris (Capo 4)

     H.              H.              H.              H.
E|---------------|---------------|---------------|---------------|
B|---------------|---------------|---------------|---------------|
G|---------------|---------------|---------------|---------------|
D|---------------|---------------|---------------|---------------|
A|---------------|---------------|---------------|---------------|
D|---------------|---------------|---------------|---------------|


       T  T     T        T   T     T          T   T     T       T     T   T
    S  S  S  S  S   S S  S   S  S  S  S    S  S   S  S  S  S S  S  S  S   S  S
E|--------------------------------------|--------------------------------------|
B|----12----------------10s-12p-0-------|--------------------------------------|
G|-------------12p--0-------------12p-0-|--------------------------------------|
D|-------10p-0--------------------------|----12s-14p-0---------12p-0-----------|
A|--3---------------L-5---------------L-|--------------14p-0---------12s-14p-0-|
D|--------------------------------------|--5---------------L-2---------------L-|


       T  T     T        T   T     T          T   T     T       T     T   T
    S  S  S  S  S   S S  S   S  S  S  S    S  S   S  S  S  S S  S  S  S   S  S
E|--------------------------------------|--------------------------------------|
B|----12----------------10s-12p-0-------|--------------------------------------|
G|-------------12p--0-------------12p-0-|--------------------------------------|
D|-------10p-0--------------------------|----12s-14p-0---------12p-0-----------|
A|--3---------------L-5---------------L-|--------------14p-0---------12s-14p-0-|
D|--------------------------------------|--5---------------L-2---------------L-|


       T  T     T        T   T     T          T   T     T       T     T   T
    S  S  S  S  S   S S  S   S  S  S  S    S  S   S  S  S  S S  S  S  S   S  S
E|--------------------------------------|--------------------------------------|
B|----12----------------10s-12p-0-------|--------------------------------------|
G|-------------12p--0-------------12p-0-|--------------------------------------|
D|-------10p-0--------------------------|----12s-14p-0---------12p-0-----------|
A|--3---------------L-5---------------L-|--------------14p-0---------12s-14p-0-|
D|--------------------------------------|--5---------------L-2---------------L-|


       T  T     T        T   T     T          T   T     T       T     T   T
    S  S  S  S  S   S S  S   S  S  S  S    S  S   S  S  S  S S  S  S  S   S  S
E|--------------------------------------|--------------------------------------|
B|----12----------------10s-12p-0-------|--------------------------------------|
G|-------------12p--0-------------12p-0-|--------------------------------------|
D|-------10p-0--------------------------|----12s-14p-0---------12p-0-----------|
A|--3---------------L-5---------------L-|--------------14p-0---------12s-14p-0-|
D|--------------------------------------|--5---------------L-2---------------L-|


     S  S E  E  E  E  E  E  E  E  E  E  E  E  E
E|-----------------0--------5-----------------0---||
B|--------0-----------0--------0-----7------------||
G|*----------0--------------------------0--------*||
D|*----------------------------------------7--L--*||
A|---0h-3----L--5-----L--7-----L--5-----L---------||
D|------------------------------------------------||


     S  S E  E  E  E  E  E  E  E  E  E  E  E  E   4x
E|-----------------0--------5-----------------0---||
B|--------0-----------0--------0-----7------------||
G|*----------0--------------------------0--------*||
D|*----------------------------------------7--L--*||
A|---0h-3----L--5-----L--7-----L--5-----L---------||
D|------------------------------------------------||


     S  S E  E  E  E  E  E  E  E  E  E  E  E  E   4x
E|-----------------0--------5-----------------0---||
B|--------0-----------0--------0-----7------------||
G|*----------0--------------------------0--------*||
D|*----------------------------------------7--L--*||
A|---0h-3----L--5-----L--7-----L--5-----L---------||
D|------------------------------------------------||


                     T        T   T        T
     E  S S S S E.   S  S  S  S   S  S  S  S   S  E
E|------------------10p-0h-3-------------------------|
B|---3--3-3-3-3-3------------10s-12p-0h-3------------|
G|*--0--0-0-0-0-0-------------------------11s-12p-0--|
D|*--2--2-2-2-2-2------------------------------------|
A|---3--3-3-3-3-3------------------------------------|
D|---------------------------------------------------|


    E  S S S S E  S S S S S S S S  4x  E  S S S S E  S S S S S E.
E|---------------------------------||------------------------------|
B|--7--7-7-7-7-7--7-7-7-7-7-7-7-7--||--7--7-7-7-7-7--7-7-7-7-7-----|
G|--0--0-0-0-0-0--0-0-0-0-0-0-0-0-*||--0--0-0-0-0-0--0-0-0-0-0-----|
D|--5--5-5-5-5-5--5-5-5-5-5-5-5-5-*||--5--5-5-5-5-5--5-5-5-5-5-----|
A|--7--7-7-7-7-7--7-7-7-7-7-7-7-7--||--7--7-7-7-7-7--7-7-7-7-7-----|
D|---------------------------------||------------------------------|


    E  E  E  E  E  E     E  S S S S E  S S S S    E  S S S S E  S S S S
E|--------------------|------------------------|------------------------|
B|--------------------|------------------------|------------------------|
G|--------------------|------------------------|------------------------|
D|--0--0--0--0--0--0--|------------------------|--5--5-5-5-5-5--5-5-5-5-|
A|--2--2--2--2--2--2--|--2--2-2-2-2-2--2-2-2-2-|--5--5-5-5-5-5--5-5-5-5-|
D|--------------------|--5--5-5-5-5-5--5-5-5-5-|--5--5-5-5-5-5--5-5-5-5-|


                                T  T     T        T   T     T
    E  S S S S S Q    S      S  S  S  S  S   S S  S   S  S  S  S
E|----------------------||---------------------------------------|
B|----------------------||-----12----------------10s-12p-0-------|
G|----------------------||*-------------12p--0-------------12p-0-|
D|--5--5-5-5-5-5--------||*-------10p-0--------------------------|
A|--5--5-5-5-5-5--------||---3---------------L-5---------------L-|
D|--5--5-5-5-5-5--------||---------------------------------------|


       T   T     T       T     T   T
    S  S   S  S  S  S S  S  S  S   S  S  4x
E|---------------------------------------||
B|---------------------------------------||
G|--------------------------------------*||
D|----12s-14p-0---------12p-0-----------*||
A|--------------14p-0---------12s-14p-0--||
D|--5---------------L-2---------------L--||


          T            T       T             T
     S S  S   S  S  S  S  S S  E    S  S  S  S  S  S  S  4x
E|----------------------------10s--12p-0h-3--------------||
B|-------10s-12p-0h-3-----------------------12p-0h-3p-0--||
G|*-------------------12p-0-----------------------------*||
D|*-------------------------2-------------------------L-*||
A|---0-3------------------L------------------------------||
D|-------------------------------------------------------||


      E  E   E  E   E  E  E  E      E  E   E  E   E  E   E  E   4x
E|------------------------------|-------------------------------||
B|------------------------------|-------------------------------||
G|*------0---L--0---L--0--L--0--|---L--0---L--0---L--0---L--0--*||
D|*--12--L--12--L--10--L--9--L--|--12--L--12--L--12--L--12--L--*||
A|------------------------------|-------------------------------||
D|------------------------------|-------------------------------||


                            T        T            T   T
                                          |--3-|  |---3--|
   H.              S  S  S  S  S  S  S  S S  S S  S   S  S    H.
E|----------------|------------------------------------------|---------------|
B|----------------|----------12p-0h-8--------------10s-12p-0-|---------------|
G|*---------------|-------------------12p-0------7---------L-|---------------|
D|*---------------|--0h-5h-7--------------L-0h-5-----------L-|---------------|
A|----------------|------------------------------------------|---------------|
D|----------------|------------------------------------------|---------------|


           T        T            T   T
                         |--3-|  |---3--|
  S  S  S  S  S  S  S  S S  S S  S   S  S
E|--------------------------------10h-12p-0--||
B|----------12p-0h-8-------------------------||
G|-------------------12p-0------7---------L-*||
D|--0h-5h-7--------------L-0h-5-----------L-*||
A|-------------------------------------------||
D|-------------------------------------------||


        T  T     T        T   T     T
     S  S  S  S  S   S S  S   S  S  S  S
E|---------------------------------------|
B|-----12----------------10s-12p-0-------|
G|*-------------12p--0-------------12p-0-|
D|*-------10p-0--------------------------|
A|---3---------------L-5---------------L-|
D|---------------------------------------|


       T   T     T       T     T   T
    S  S   S  S  S  S S  S  S  S   S  S  6x
E|---------------------------------------||
B|---------------------------------------||
G|--------------------------------------*||
D|----12s-14p-0---------12p-0-----------*||
A|--------------14p-0---------12s-14p-0--||
D|--5---------------L-2---------------L--||



************************************

| p  Pull-off
| h  Hammer-on

************************************

            
            
Suggest correction
Creating personal tab
Creating personal tab
You can edit any tab online and save it as your Personal.

You can edit, replace or remove any tab part or add personal notes – all changes will be seen only by you.

Personal tabs can be accessed anytime from any device, even offline.
Learn more »
Give kudos to tab author, rate the tab!
1 2 3 4 5
comments
print report bad tab
guest
You may want to rate the tab now too:
select rating
Wanna post a correction for this tab? Suggest correction