Oops, an error
Loading. Please wait.

Algo Nuevo tab

13 views 1 this week
no commentswrite comment
1 2 3 4 5
3 more votes to show rating
add to favorites
×
Save as Personal and add changes to this tab that will be seen only by you. Learn more ›
×
You can save this tab as Personal to edit and correct it or add notes. All changes will be seen only by you. Learn more »
launch autoscroll
font size
0
reset
how to read this tab
guitar tuner
edit
Autoscroll
slow
fast
+/-
esc
set tempo
stop
  Los acordes que mandó Julieta están perfectos, pero quiero
agregar este tab de lo que toca la primera guitarra tanto
en la introducción como en el pequeño solo de la mitad.
Dedicado a la chueca.


----12---8--10--12--------8--10--12--12--10?8----7--4--0---
-----------------------------------------------------------
-----------------------------------------------------------
-----------------------------------------------------------
-----------------------------------------------------------
-----------------------------------------------------------


                                                arrastrar
-8--5--7--8---5--7--8-----10--8--7---4--0--4---8---------5-
-----------------------------------------------------------
-----------------------------------------------------------
-----------------------------------------------------------
-----------------------------------------------------------
-----------------------------------------------------------

(silbando)
--5----7--8----8---7--5--4----5---7--8--7--4--------------
---------------------------------------------h5-5--3------
------------------------------------------------------2---
----------------------------------------------------------
----------------------------------------------------------
----------------------------------------------------------

La canción se debe tocar con ritmo de zamba.

 Rasgueo zamba:

Pulgar         Pulgar       Pulgar     Chasquido   Pulgar
abajo          arriba       abajo                  abajo

 En el chasquido se enmudecen las cuerdas con la palma
de la mano, a la vez que con las uñas se pulsa hacia
abajo de manera que quede  sonando solo la primera cuerda.

            
            
Suggest correction
Creating personal tab
Creating personal tab
You can edit any tab online and save it as your Personal.

You can edit, replace or remove any tab part or add personal notes – all changes will be seen only by you.

Personal tabs can be accessed anytime from any device, even offline.
Learn more »
Give kudos to tab author, rate the tab!
1 2 3 4 5
comments
print report bad tab
guest
Wanna post a correction for this tab? Suggest correction