Oops, an error
Loading. Please wait.

Beauty And The Beast Tab

version 1
version 1

Whole song

Interactive

99,335 views 189 this week
no commentswrite comment
1 2 3 4 5
x 17
add to favorites
launch autoscroll
font size
0
reset
how to read this tab
guitar tuner
Autoscroll
slow
fast
+/-
esc
set tempo
stop
Help us to improve Ultimate-Guitar.com Take our survey!
×
BEAUTY AND THE BEAST
                              As recorded by Disney
              (From the 1991 Album BEAUTY AND THE BEAST SOUNDTRACK)

Words by Howard Ashman

Music by Alan Menken
Arranged by Jerry Silverman
Transcribed by Erik Dietrich

Gtr I (E A D G B E) - 'Untitled'

[Verse 1]

   Q=75
   Dadd9            A7sus4            Dadd9
  4/4
   Gtr I
   Q  E E E E E E   E E E E E E E E   Q  E E E E E E
e|-2--2-----------|-----0---0-------|-2--2-----------|
B|-5--5-------2-3-|---3---3---2-0-2-|-5--5-------2-3-|
G|-2--2-----2-----|-0---------------|-2--2-----2-----|
D|-0------4-------|-----------------|-0------4-------|
A|------0---------|-0---------------|------0---------|
E|----------------|-----------------|----------------|
  H      H         W                 H      H


   A7sus4  A7        Dadd9  D         F#m
   E E E E E E E E   Q  E E H         E E E E E E E E
e|-0---------------|-2--2---2-------|-----2-----------|
B|---3---3-2---0-2-|-5--5---3-------|---2---2---------|
G|-----0-----0-----|-2--2---------0-|-2-------2-0-----|
D|-----------------|-0------0-2-4---|-------------4-2-|
A|-0---------------|------0---------|---------4-------|
E|-----------------|----------------|-2---------------|
  W                 H      E E E E   H       H


   Gadd9   G/B       A7sus4            Dadd9  D
   E E E E E E E E   E E E E E E E E   Q  E E E E E E
e|-----3-----------|-----0---2-3-0---|-2--2-----------|
B|-----0-----------|-----3---3-----3-|-5--5-------2-3-|
G|---2---2-0-------|---0---0---------|-2--2-----2-----|
D|-0---------4-2-0-|-----------------|-0------4-------|
A|---------2-------|-0---------------|------0---------|
E|-3---------------|-----------------|----------------|
  H       H         W                 H      H


   A7sus4  A7        Dadd9            Am7     D7
   E E E E E E E E   Q  E E E E E E   E E E E E E E E
e|-----0---0-------|-2--2-----------|-0-------2-0-2-5-|
B|---3---3---2-0-2-|-5--5-------2-3-|-----1---1-------|
G|-0---------------|-2--2-----2-----|-----0---2-------|
D|-----------------|-0------4-------|---2---2-0-------|
A|-0---------------|------0---------|-0---------------|
E|-----------------|----------------|-----------------|
  W                 H      H         H       H


   Gmaj7/B G   D/F#  Em7     A7suA7    D
   E E E E E E E E   E E E E E E E E   E E E E H
e|---------------2-|-------0-2-3-0-2-|-------0-2-------|
B|-3-------3-2-3---|-----3---3---2---|-3---3---3-------|
G|---0---0-0---2---|-0-------0-------|---2-------0-----|
D|-----4-----------|-----------------|-0-------4---2-4-|
A|-2---------------|---2-----0-------|-----------------|
E|---------3---2---|-0---------------|-----------------|
  H       Q   Q     H       H         H       E E E E


[Pre-Chorus]

   A7sus4            F#m               Gadd9   G
   E E E E E E E E   E E E E E E E E   E E E E H
e|-----0-----------|-----2-------2---|-----3---3-------|
B|-----3-----------|---2---2---2---2-|-----0---0-----0-|
G|---0---0-------0-|-2---------------|---2---2-------0-|
D|---------0-2-4---|---------4-------|-------------0---|
A|-0---------------|-----------------|---------2-4-----|
E|-----------------|-2---------------|-3---------------|
  W                 W                 H       E E E E


   F#m               Gadd9   G         F#m
   E E E E E E E E   E E E E H         E E E E E E E E
e|-----2-------2---|-----3---3-------|-----2---5-3-2---|
B|---2---2---2---2-|-----0---0-------|---2---2-------5-|
G|-2---------------|---2---2-------0-|-2---------------|
D|---------4-------|---------0-2-4---|-----------------|
A|-----------------|-----------------|-----------------|
E|-2---------------|-3---------------|-2-------2-------|
  W                 H       E E E E   H       H


                                       Key Change
   Bm      Bm7       C       D          E
   E E E E E E E E   W                   H      E E E E
e|-------------2---|-0---------------||-^0------------0-|
B|-3-------3-5---3-|---1-----3-------||-^0--------0-4---|
G|---4---4-2-------|-----0-----2-----||-^1------1-------|
D|-----4---4-------|-------2-0---4-0-||-^2--------------|
A|-2-------2-------|-3---------------||-^2--------------|
E|-----------------|-----------------||--0----0-0-------|
  H       H         E E E E E E E E     Q.   E H


   B7sus4  B7        Eadd9  E         B7sus4  B7
   E E E E E E E E   H      E E E E   E E E E E E E E
e|-------2-------2-|-2------------0-|-2---------------|
B|-----0-------0---|-0--------0-4---|-------0-------0-|
G|-2---------2-----|-1------1-------|-----2-------2---|
D|---2-----1-------|----------------|---2-------1-----|
A|-2-------2-------|----------------|-2-------2-------|
E|-----------------|-0----0-0-------|-----------------|
  H       H         Q.   E H         H       H


   Eadd9  E         G#m               Aadd9   A
   H      E E E E   H       E E E E   E E E E E E E E
e|-2------0-2-4-5-|-7-------7-5-4---|-0-------5-4-2-0-|
B|-0--------------|---4---4-4-----7-|---2---2---------|
G|-1--------------|-----4---4-------|---4---4---------|
D|----------------|-----------------|-----2-----------|
A|----------------|-----------------|-0-------0-------|
E|-0----0-0-------|-4-------4-------|-----------------|
  Q.   E H         E E E E H         H       H


   B7sus4  B7        Eadd9  E         B7sus4  B7
   E E E E E E E E   H      E E E E   E E E E E E E E
e|---------4-2-2---|-2------------0-|-------2-4-2-2---|
B|-0-------4-----5-|-0--------0-4---|-----0---4-----5-|
G|-----2---2-------|-1------1-------|-2-------2-------|
D|---2---2---------|----------------|---2-------------|
A|-2-------2-------|----------------|-2-------2-------|
E|-----------------|-0----0-0-------|-----------------|
  H       H         Q.   E H         H       H


   Eadd9  E         Bm      E7        Amaj7       E
   H      E E E E   E E E E E E E E   E E E E E E E E
e|-2------------0-|-2-------4-2-4-7-|-0-------0---0-4-|
B|-0--------0-4---|-----3---3-------|-----2---2-4-0---|
G|-1------1-------|---4---4-4-------|---1---1---------|
D|----------------|-----------------|-----------------|
A|----------------|-2---------------|-0-------0-------|
E|-0----0-0-------|---------0-------|-------------4---|
  Q.   E H         H       H         H       Q   Q


[Outro]

   F#m7    B7        E                 C#m/E   E   E7/G#
   E E E E E E E E   W                 E E E E E E E E
e|-----0---4-5-2-4-|-0---------------|-------0-4-2-4-7-|
B|---2---2-----4---|-------0---------|-----2---0---4---|
G|-2---------------|-----1---1-2---1-|---1-------------|
D|-----------------|---4---------4---|-2---------------|
A|---------2-------|-----------------|-----------------|
E|-2---------------|-0---------------|---------0---4---|
  H       H         E E E E E E E E   H       Q   Q


   A        E/G#  F#m7 B7        Eadd9   B7        E
   H    E E E E   H    H         E E E E E E E E   E E E E H
e|-0----0---0-4-|--------------|-----2---4-5-2-4-|-0------------*|
B|-2----2-4-0---|--------------|-----0---0-------|-0------------*|
G|-2------------|-2------------|---1---1---------|-1-2---1------*|
D|--------------|-2------------|-----------------|-----4---2----*|
A|-0----0-------|-4------0-----|-----------------|--------------*|
E|----------4---|-2----4---2-4-|-0---------------|-0------------*|
  H    Q   Q     H    E E E E   H       H         W
Suggest correction
comments
print report bad tab
guest
You may want to rate the tab now too:
select rating
Wanna post a correction for this tab? Suggest correction