Oops, an error
Loading. Please wait.

Beauty And The Beast tab

version 2
version 2

Whole song

  • This tab has link to video demo so it will be easier to follow.

Interactive

2,809 views 129 this week
1 commentread comment
1 2 3 4 5
x 5
add to favorites
×
Save as Personal and add changes to this tab that will be seen only by you. Learn more ›
×
You can save this tab as Personal to edit and correct it or add notes. All changes will be seen only by you. Learn more »
launch autoscroll
font size
0
reset
how to read this tab
guitar tuner
edit
Autoscroll
slow
fast
+/-
esc
set tempo
stop
Author
Difficulty
About this tab version
This tab has link to video demo so it will be easier to follow. Was this info helpful? Yes No
BEAUTY AND THE BEAST

Tabs written and arranged by Edwin-E (in YouTube)
Blog: http://guitarplucking.blogspot.com
Facebook Page: http://facebook.com/EdwinEGuitar

Guitar Video Demo SLOW VERSION:  https://youtu.be/xKiX9ykarkQ

[Intro]
E|--------2----------------------2h3-----2-----------|
B|--------3--------2h3----------------5-----3-----3--|
G|-----2--2-----2-------0----------------------2-----|
D|--0--------4----------------0-------------0--------|
A|-------------------------2-------------------------|
E|----------------------3----------------------------|

E|----------------------2h3-----2-----------|
B|--------2h3----------------5-----3-----3--|
G|-----2-------0----------------------2-----|
D|--4----------------0-------------0--------|
A|----------------2-------------------------|
E|-------------3----------------------------|

[VERSE]
E|------------------------3--------|
B|----------2h3--------------3-----|
G|-------2-------0--------------0--|
D|--2/4----------------0-----------|
A|------------------2--------------|
E|---------------3-----------------|
D              G
Tale as old as time

E|------------------------0-----------|
B|--------3----------2h3-----------2--|
G|-----2----------2-------------2-----|
D|--0--------2/4-------------2--------|
A|------------------------0-----------|
E|------------------------------------|
D              A
True as it can be

E|--------------0--2--3--5--------|
B|--------3--3-----------2--2-----|
G|-----2-----------------------2--|
D|--0-----------------------------|
A|--------------------------------|
E|-----------------------2--------|
D                  F#m
Barely even friends

E|--5--3--2--------------|
B|--2--------5--3--------|
G|--------------0--------|
D|--------------------0--|
A|-----------------2-----|
E|--2-----------3--------|
               G
Then somebody bends

E|--3--2--0-----------0--|
B|--3--------3--------2--|
G|--------------2-----2--|
D|-----------------2--2--|
A|--------------0--------|
E|--3--------------------|
          A
Unexpectedly

E|------------------------3--------|
B|----------2h3--------------3-----|
G|-------2-------0--------------0--|
D|--2/4----------------0-----------|
A|------------------2--------------|
E|---------------3-----------------|
D                G 
 Just a little change

E|------------------------0-----------|
B|--------3----------2h3-----------1--|
G|-----2----------2-------------0-----|
D|--0--------2/4-------------2--------|
A|------------------------0-----------|
E|------------------------------------|
D                 Am7         
 Small to say the least

E|--2--0--2--5-----------|
B|--3--------5--3--------|
G|--2-----------0--------|
D|--0-----------------0--|
A|-----------------2-----|
E|--------------3--------|
D               G
 Both a little scared

E|-----------2-----------|
B|--3--2--3--------------|
G|--------------0--------|
D|--------------------2--|
A|-----------------2-----|
E|--2-----------0--------|
G/F#            Em
Neither one prepared

E|--2--3-----2--------2--|
B|--2-----5-----3-----3--|
G|--2--------------2--2--|
D|--2-----------0-----0--|
A|--0--------------------|
E|-----------------------|
A7              D
Beauty and the Beast

[CHORUS]
E|-----0--2--3--5--------5--------------------|
B|--3-----------2--2--------2-----------------|
G|--------------------2--------2--------------|
D|-----------------------------------------0--|
A|--------------------------------------2-----|
E|--------------2-----------------2--3--------|
               F#m  G
Ever just the same
E|-----0--2--3--5--------5--------------------|
B|--3-----------2--2--------2-----------------|
G|--------------------2--------2--------------|
D|-----------------------------------------0--|
A|--------------------------------------2-----|
E|--------------2-----------------2--3--------|
           F#m  G
Ever a surprise

E|-----0--2--3--5--------5--3--2--------------|
B|--3-----------2--2--------------5--3--------|
G|--------------------2--------------0--------|
D|-----------------------------------------0--|
A|--------------------------------------2-----|
E|--------------2--------------------3--------|
           F#m               G
Ever as before ever just as sure

E|-----0--2-----0-----------0--------------2--|
B|--3--------3--1--------1--------------2--4--|
G|--------------------0--------------0-----2--|
D|-----------------2--------------2--------4--|
A|--------------3--------------0-----------2--|
E|--------------------------------------------|
                 C  A7 B7
As the sun will rise

[VERSE]
E|--------0-----------------------0--------|
B|--------0-----0--4--5--------2-----2-----|
G|--------1--1-----------2--------------2--|
D|--------2-----------------2--------------|
A|-----2-----------------0-----------------|
E|--0--------------------------------------|
E                 A
  Tale as old as time

E|--------0--------------2--------|
B|--------0-----0--4--5--------4--|
G|--------1--1--------------4-----|
D|--------2-----------------------|
A|-----2-----------------2--------|
E|--0-----------------------------|
E                 B 
  Tune as old as song

E|--------0--0--2--4--5--7--------|
B|--------0--------------4-----4--|
G|--------1-----------------4-----|
D|--------2-----------------------|
A|-----2--------------------------|
E|--0--------------------4--------|
E                   G#m
  Bittersweet and strange

E|--7--5--4-----0-----0--|
B|--4--------7--2-----2--|
G|--------------------2--|
D|-----------------2-----|
A|--------------0--------|
E|--4--------------------|
                   A
Finding you can change

E|--5--4--2--0-----------------|
B|-----------------------4--4--|
G|--------------4-----4-----4--|
D|-----------------4--------4--|
A|--------------2--------------|
E|-----------------------------|
                   B
Learning you were wrong

E|--------0-----------------------0--------|
B|--------0-----0--4--5--------2-----2-----|
G|--------1--1-----------2--------------2--|
D|--------2-----------------2--------------|
A|-----2-----------------0-----------------|
E|--0--------------------------------------|
E                 A
  Certain as the sun (certain as the sun)

E|--------0--------------2--------|
B|--------0-----0--4--5--------4--|
G|--------1--1--------------4-----|
D|--------2-----------------------|
A|-----2-----------------2--------|
E|--0-----------------------------|
E                B
  Rising in the east 

E|--4--2--4--4/7-----------|
B|--0-------------5--------|
G|----------------6--------|
D|----------------------7--|
A|-------------------7-----|
E|--0-------------5--------|
E                 A
  Tale as old as time

E|-----------4-----------|
B|--5--4--5--------------|
G|--------------2--------|
D|--------------------4--|
A|-----------------4-----|
E|--4-----------2--------|
A/G#           F#m                
Song as old as rhyme

E|--4--5--2--4--0--------|
B|--4-----------0--------|
G|--4--------------------|
D|--4-----------------2--|
A|--2--------------2-----|
E|--------------0--------|
B7              E
Beauty and the Beast

E|--4--2--4--4/7-----------|
B|--0-------------5--------|
G|----------------6--------|
D|----------------------7--|
A|-------------------7-----|
E|--0-------------5--------|
                A
Tale as old as time

E|-----------4-----------|
B|--5--4--5--------------|
G|--------------2--------|
D|--------------------4--|
A|-----------------4-----|
E|--4-----------2--------|
A/G#            F#m
Song as old as rhyme

E|--4--5--2--4--0-----------0--|
B|--4-----------0-----------0--|
G|--4--------------------1--1--|
D|--4-----------------2-----2--|
A|--2--------------2--------2--|
E|--------------0-----------0--|
B7               E
Beauty and the Beast

************************************

| h  Hammer-on
| /  Slide up
 

************************************
Suggest correction
Creating personal tab
Creating personal tab
You can edit any tab online and save it as your Personal.

You can edit, replace or remove any tab part or add personal notes – all changes will be seen only by you.

Personal tabs can be accessed anytime from any device, even offline.
Learn more »
comments
print report bad tab
1 comment total.
0 reply
Stuzzie 10 Apr 14, 2017 03:00 PM

It's BE AU TI FUL! BELISSIMO!
Thank You!

guest
You may want to rate the tab now too:
select rating
Wanna post a correction for this tab? Suggest correction