Oops, an error
Loading. Please wait.

I Dont Know Bass Tab

606 views 1 this week
no commentswrite comment
1 2 3 4 5
please rate
add to favorites
launch autoscroll
font size
0
reset
guitar tuner
Tab Pro tools
  • play this tab
  • loop segment
  • change instrument
  • show fretboard
  • metronome
Autoscroll
slow
fast
+/-
esc
set tempo
stop


g--------------------|
d--------------------|
a-0--3565300-0-0-----|  x3
e-----------3-3------|


g--------------------|
d----------7-5-7-5-7-|
a-0--356530----------|  x1
e--------------------|


g--------------------|
d--------------------|
a-0--3565300-0-0-----|  x1
e-----------3-3------|

g--------------------|
d-----565------------|
a-5--8---855-3-5-3-5-|  x1
e--------------------|


g--------------------|
d--------------------|
a-0--3565300-0-0-----|  x1
e-----------3-3------|


g------------------------------------------|
d-----565-------343------------------------|
a-5--8---85-3--6---63--11-1-11--33-3-2-1---|  x1


reapeat the whole thing again.

g-------------------------------|
d-------------------------------|
a---7---10---12-----5---8---10--|  x1
e-------------------------------|


g--------------------|
d--------------------|
a-0--3565300-0-0-----|  x1
e-----------3-3------|


g----------------------------------|
d----------------------------------|
a---7---10---12-----5---8---10-----|  x1
e----------------------------------|

g--------------------|
d--------------------|
a-0--3565300-0-0-----|  x1
e-----------3-3------|

g-------------------------------------------------|
d-------------------------------------------------|
a---7---10---12-----5---8---10--99-99-9--3333-111-|  x1
e-------------------------------------------------|


g--------------------|
d--------------------|
a-0--3565300-0-0-----|  x2
e-----------3-3------|


g---------------------------------------------------|
d-----1----------------------1-----------------5----|
a-3-3---3----------------3-3---3-----------3-5---7--|  x1
e---------3-3-5-5-3-5------------3-3-5-5-3----------|

g--------------------|
d--------------------|
a-0--3565300-0-0-----|  x2
e-----------3-3------|

g--------------------|
d----------7-5-7-5-7-|
a-0--356530----------|  x1
e--------------------|

g--------------------|
d--------------------|
a-0--3565300-0-0-----|  x1
e-----------3-3------|

g-------------------------------------------------|
d-------------------------------------------------|
a---7---10---12-----5---8---10--99-99-9--3333-111-|  x1
e-------------------------------------------------|
comments
We did not receive enough feedback on this tab! Please rate:
print report bad tab
1 2 3 4 5
I want to post or [tab]
guest
You may want to rate the tab now too:
select rating
Please do not post tabs as comments. Select "correction" instead!