Oops, an error
Loading. Please wait.

I Drove All Night Bass Tab

1,427 views 6 this week
no commentswrite comment
1 2 3 4 5
please rate
add to favorites
launch autoscroll
font size
0
reset
guitar tuner
Tab Pro tools
  • play this tab
  • loop segment
  • change instrument
  • show fretboard
  • metronome
×
Best way to learn
"I Drove All Night"
Autoscroll
slow
fast
+/-
esc
set tempo
stop
Contributor
Difficulty
intermediate
I Drove All Night
Songwriters: Billy Steinberg & Tom Kelly
Originally written for Roy Orbison in 1987.
(The Big O version not released until 1991)
This version by Celine Dion, number one in Canada, Sweden
and Belgium released in 1993
Tabbed by bass50611.  Any comments feel free to e-mail me at
 goldenoldie.benson@sky.com
Great Version - have fun!

Intro:								     .
G|---------|---------|---------|---------|---------|---------|
D|-6-6-6-6-|-2-2-2-2-|-4-4-4-4-|-1-1-1-1-|-2-2-2-2-|-2-2-2-2-|
A|---------|---------|---------|---------|---------|---------|
E|---------|---------|---------|---------|---------|---------|

Verse 1:
G|------------------|------------------|------------------|---------|
D|------------------|------------------|------------------|---------|
A|------------------|------------------|------------------|---------|
E|-2-2-2-2--2-2-2-2-|-0-0-0-0--0-0-0-0-|-2-2-2-2--2-2-2-2-|-0-0-0-0-|

G|---------|-----------------|------------------|------------------|
D|---------|-----------------|------------------|------------------|
A|---------|-2-2-2-2---------|------------------|------------------|
E|-4-4-4-4-|---------0-0-0-0-|-2-2-2-2--2-2-2-2-|-0-0-0-0--0-0-0-0-|

G|------------------|------------------|------------------|
D|------------------|------------------|------------------|
A|------------------|------------------|------------------|
E|-2-2-2-2--2-2-2-2-|-0-0-0-0--0-0-0-0-|-7-7-7-7--7-7-7-7-|

Chorus 1:
G|---------|---------|-----------|---------|------------------|
D|---------|---------|-----------|---------|------------------|
A|-6-6-6-6-|-7-7-7-7-|-----------|---------|------------------|
E|---------|---------|-7-7-7-6-5-|-4-4-4-4-|-2-2-2-2--2-2-2-2-|

G|---------|---------|-----------|---------|------------------|
D|---------|---------|-----------|---------|------------------|
A|-6-6-6-6-|-7-7-7-7-|-----------|---------|------------------|
E|---------|---------|-7-7-7-6-5-|-4-4-4-4-|-2-2-2-2--2-2-2-2-|
                                            .
G|------------------|------------------|---------|
D|------------------|------------------|---------|
A|------------------|------------------|----2----|
E|-0-0-0-0--0-0-0-0-|-0-0-0-0--0-0-0-0-|---------|

Verse 2:
   .       .        .       .
G|-------|--------|-------|--------|------------------|---------|
D|-------|--------|-------|--------|------------------|---------|
A|-------|--------|-------|--------|------------------|---------|
E|-2-----|-2------|-0-----|-0------|-2-2-2-2--2-2-2-2-|-0-0-0-0-|

G|---------|-----------------|------------------|------------------|
D|---------|-----------------|------------------|------------------|
A|---------|-2-2-2-2---------|------------------|------------------|
E|-4-4-4-4-|---------0-0-0-0-|-2-2-2-2--2-2-2-2-|-0-0-0-0--0-0-0-0-|


G|------------------|------------------|------------------|
D|------------------|------------------|------------------|
A|------------------|------------------|------------------|
E|-2-2-2-2--2-2-2-2-|-0-0-0-0--0-0-0-0-|-7-7-7-7--7-7-7-7-|

Chorus 2:
G|---------|---------|-----------|---------|------------------|
D|---------|---------|-----------|---------|------------------|
A|-6-6-6-6-|-7-7-7-7-|-----------|---------|------------------|
E|---------|---------|-7-7-7-6-5-|-4-4-4-4-|-2-2-2-2--2-2-2-2-|

G|---------|---------|-----------|---------|------------------|
D|---------|---------|-----------|---------|------------------|
A|-6-6-6-6-|-7-7-7-7-|-----------|---------|------------------|
E|---------|---------|-7-7-7-6-5-|-4-4-4-4-|-2-2-2-2--2-2-2-2-|

G|------------------|------------------|
D|------------------|------------------|
A|------------------|------------------|
E|-0-0-0-0--0-0-0-0-|-0-0-0-0--0-0-0-0-|

Bridge 1, Solo & Lead in to Chorus 3:
G|---------|---------|---------|---------|---------|---------|
D|---------|---------|---------|---------|---------|---------|
A|---------|-7-7-7-7-|-9-9-9-9-|-6-6-6-6-|-7-7-7-7-|-9-9-9-9-|
E|-4-4-4-4-|---------|---------|---------|-------------------|

G|-------------|---------|---------|---------|------------------|
D|-------------|---------|---------|---------|------------------|
A|-11-11-11-11-|-7-7-7-7-|-9-9-9-9-|-6-6-6-6-|------------------|
E|-------------|---------|---------|---------|-0-0-0-0--0-0-0-0-|

G|------------------|------------------|------------------|
D|------------------|------------------|------------------|
A|------------------|----------7-7-7-7-|------------------|
E|-2-2-2-2--2-2-2-2-|-0-0-0-0----------|-7-7-7-7--7-7-7-7-|

Chorus 3:
G|---------|---------|-----------|---------|------------------|
D|---------|---------|-----------|---------|------------------|
A|-6-6-6-6-|-7-7-7-7-|-----------|---------|------------------|
E|---------|---------|-7-7-7-6-5-|-4-4-4-4-|-2-2-2-2--2-2-2-2-|
                                                       > >  >  >  >
G|---------|---------|-----------|---------|---------|---------------|
D|---------|---------|-----------|---------|---------|---------------|
A|-6-6-6-6-|-7-7-7-7-|-----------|---------|---------|---------------|
E|---------|---------|-7-7-7-6-5-|-4-4-4-4-|-2-2-2-2-|-2--2--2--2--2-|

Bridge 2:
G|---------|---------|---------|---------|---------|---------|
D|---------|---------|---------|---------|---------|---------|
A|---------|-7-7-7-7-|-9-9-9-9-|-6-6-6-6-|-7-7-7-7-|-9-9-9-9-|
E|-4-4-4-4-|---------|---------|---------|-------------------|

Outro - Repeat To End/Fade:
G|---------|---------|-----------|---------|------------------|
D|---------|---------|-----------|---------|------------------|
A|-6-6-6-6-|-7-7-7-7-|-----------|---------|------------------|
E|---------|---------|-7-7-7-6-5-|-4-4-4-4-|-2-2-2-2--2-2-2-2-|
comments
We did not receive enough feedback on this tab! Please rate:
print report bad tab
1 2 3 4 5
I want to post or [tab]
guest
You may want to rate the tab now too:
select rating
Please do not post tabs as comments. Select "correction" instead!