Oops, an error
Loading. Please wait.

My Heart Will Go On Tab

version 1
version 1

Whole song

Video

112,429 views 24 this week
no commentswrite comment
1 2 3 4 5
x 14
add to favorites
launch autoscroll
font size
0
reset
how to read this tab
guitar tuner
×
Best way to learn
"My Heart Will Go On"
Autoscroll
slow
fast
+/-
esc
set tempo
stop
Author
Capo
  follow
4th fret
Title   : My Heart Will Go On  (Acoustic Version)
Artist  : Celine Dion

Guitar (Capo 4)
jagdeep_1789@yahoo.com

Pls Give This Tab A Good Rate..

[Intro]
                                                          
e|------------------0h-1--|--0-----0----3---------------|
B|--1--3--3--5------1-----|----3-1---3---------3-5-3-1--|
G|--2---------------2-----|----------0------------------|
D|--2---------------2-----|----------0------------------|
A|--0---------------0-----|-----------------------------|
E|------------------------|----------3------------------|


                                                                           
e|----------------------|------------------0--1--|--0-----0----3------0--3--|
B|----------------------|--1--3--3/-5------1-----|----3-1---3---------------|
G|--2------4-2-0--------|--2---------------2-----|----------0---------------|
D|--3----------0--------|--2---------------2-----|----------0---------------|
A|--3----------2--------|--0---------------0-----|--------------------------|
E|-------------3--------|------------------------|----------3---------------|


                                                Every Night In My Dream...
e|--5----------3-5-3--0--|-------------------||---------------------------|
B|--6--------------------|--3----------------||---1--------1--1-----1-----|
G|--5--------------------|--0----------------||*--0-----0-----------------|
D|--3--------------------|--0----------------||*--2--2-----------2-----2--|
A|--3--------------------|-------------------||---3-----------------------|
E|-----------------------|--3----------------||---------------------------|


                                                      
e|--------------------------|--------------------------|
B|--0-----1--------1--1-----|--0-----1--------1--3-----|
G|--0-----------0--------0--|--0-----------0-----------|
D|--0--0-----0--------------|--3--3-----3-----------0--|
A|--------------------------|--------------------------|
E|--3-----------------------|--1-----------------------|


                                                      
e|--0--------0--------------|--------------------------|
B|--1-----1-----3--------3--|--1--------1--1-----1-----|
G|--0--0--------0-----0-----|--2-----2--2--2-----2-----|
D|--------------0--0--------|--2--2-----------2-----2--|
A|--3-----------------------|--0-----------------------|
E|--------------3-----------|--------------------------|


                                                      
e|--------------------------|--------------------------|
B|--0--------1--------3-----|--------------------------|
G|--0-----0--0-----0--0-----|--0-----0--------0-----0--|
D|--2--2--------2--------2--|--3--3--------3-----3-----|
A|--------------------------|--3--------3--------------|
E|--0-----------------------|--1--------1--------------|


                                                         
e|---------------------------||---------------------------|
B|-----------------------0---||---1--------1--------1-----|
G|--0-----0--------0--2-----*||*--2-----2--2-----2--2--2--|
D|--0--0--------0-----------*||*--2--2-----2--2-----2-----|
A|--2--------2---------------||---0--------0--------0-----|
E|--3--------3---------------||---------------------------|


                                                       
e|--------------------------|--3--------1--------0--1-0-|
B|--3--------3--------------|--1-----1--1-----1--1------|
G|--0-----0--0-----0--0-----|--2--2-----2--2-----2------|
D|--0--0-----0--0--------0--|--3--------3--------3------|
A|--------------------------|---------------------------|
E|--3--------3--------------|---------------------------|


                                                      
e|--------------0-----1-----|--0--------0--------------|
B|--3--------3-----3-----0--|--1-----1-----3-----1-----|
G|--0-----0--0--------------|--2--2-----------2-----2--|
D|--0--0--------------------|--------------------------|
A|--------------------------|--0-----------------------|
E|--3-----------------------|--------------------------|


                                                        
e|---------------------------|---------------------------|
B|--0--------1--------0--1-0-|---------------------------|
G|--------0--------0---------|--2--------2--------2--4-2-|
D|-----0--------0------------|--3-----3--------3---------|
A|---------------------------|--3--3--------3------------|
E|--3------------------------|--1--------1---------------|


                                                        
e|---------------------------||--------------------------|
B|---------------------------||--0--------1--------0-----|
G|--0--------0--------------*||--------0--------0--------|
D|--2-----2-----3-----0--3--*||-----0--------0--------0--|
A|--2--2-----------0---------||--------------------------|
E|--3-----------1------------||--3-----------------------|


                                                                                
e|--------------------------|--0--------0---------------|------------------0--1--|
B|--0--------1--------3-----|--1-----1-----3--------1-0-|--1--3--3/-5------1-----|
G|--------0--------0--------|--0--0--------0-----0------|--2---------------2-----|
D|-----3--------3--------0--|--------------0--0---------|--2---------------2-----|
A|--------------------------|--3------------------------|--0---------------0-----|
E|--1-----------------------|--------------3------------|------------------------|


                                                                       
e|--0-----0----3------0--3--|--5----------3-5-3--0--|-------------------|
B|----3-1---3---------------|--6--------------------|--3----------------|
G|----------0---------------|--5--------------------|--0----------------|
D|----------0---------------|--3--------------------|--0----------------|
A|--------------------------|--3--------------------|-------------------|
E|----------3---------------|-----------------------|--3----------------|


                                                        
e|---------------------------|--------------------------|
B|---1--------1--1-----1-----|--0-----1--------1--1-----|
G|*--0-----0--0--0-----0-----|--0-----0-----0--0--0--0--|
D|*--2--2-----------2-----2--|--0--0-----0--------------|
A|---3-----------------------|--------------------------|
E|---------------------------|--3-----------------------|


                                                      
e|--------------------------|--0--------0--------------|
B|--0-----1--------1--3-----|--1-----1-----3--------3--|
G|--0-----0-----0--0--0-----|--0--0--------0-----0-----|
D|--3--3-----3-----------0--|--------------0--0--------|
A|--------------------------|--3-----------------------|
E|--1-----------------------|--------------3-----------|


                                                      
e|--------------------------|--------------------------|
B|--1--------1--1-----1-----|--0--------1--------3-----|
G|--2-----2--2--2-----2-----|--0-----0--0-----0--0-----|
D|--2--2-----------2-----2--|--2--2--------2--------2--|
A|--0-----------------------|--------------------------|
E|--------------------------|--0-----------------------|


                                                        
e|--------------------------|---------------------------||
B|--------------------------|-----------------------0---||
G|--0-----0--------0-----0--|--0-----0--------0--2-----*||
D|--3--3--------3-----3-----|--0--0--------0-----------*||
A|--3--------3--------------|--2--------2---------------||
E|--1--------1--------------|--3--------3---------------||


                                                       
e|---------------------------|--------------------------|
B|---1--------1--------1-----|--3--------3--------------|
G|*--2-----2--2-----2--2--2--|--0-----0--0-----0--0-----|
D|*--2--2-----2--2-----2-----|--0--0-----0--0--------0--|
A|---0--------0--------0-----|--------------------------|
E|---------------------------|--3--------3--------------|


                                                       
e|--3--------1--------0--1-0-|--------------0-----1-----|
B|--1-----1--1-----1--1------|--3--------3-----3-----0--|
G|--2--2-----2--2-----2------|--0-----0--0--------------|
D|--3--------3--------3------|--0--0--------------------|
A|---------------------------|--------------------------|
E|---------------------------|--3-----------------------|


                                                       
e|--0--------0--------------|---------------------------|
B|--1-----1-----3-----1-----|--0--------1--------0--1-0-|
G|--2--2-----------2-----2--|--------0--------0---------|
D|--------------------------|-----0--------0------------|
A|--0-----------------------|---------------------------|
E|--------------------------|--3------------------------|


                                                         
e|---------------------------|---------------------------||
B|---------------------------|---------------------------||
G|--2--------2--------2--4-2-|--0--------0--------------*||
D|--3-----3--------3---------|--2-----2-----3-----0--3--*||
A|--3--3--------3------------|--2--2-----------0---------||
E|--1--------1---------------|--3-----------1------------||


                                                      
e|--------------------------|--------------------------|
B|--0--------1--------0-----|--0--------1--------3-----|
G|--------0--------0--------|--------0--------0--------|
D|-----0--------0--------0--|-----3--------3--------0--|
A|--------------------------|--------------------------|
E|--3-----------------------|--1-----------------------|


                                                     
e|--0--------0---------------|------------------0--1--|
B|--1-----1-----3--------1-0-|--1--3--3/-5------1-----|
G|--0--0--------0-----0------|--2---------------2-----|
D|--------------0--0---------|--2---------------2-----|
A|--3------------------------|--0---------------0-----|
E|--------------3------------|------------------------|


                                                                              
e|--0-----0----3---------------|----------------------|------------------0--1--|
B|----3-1---3---------3-5-3-1--|----------------------|--1--3--3/-5------1-----|
G|----------0------------------|--2------4-2-0--------|--2---------------2-----|
D|----------0------------------|--3----------0--------|--2---------------2-----|
A|-----------------------------|--3----------2--------|--0---------------0-----|
E|----------3------------------|-------------3--------|------------------------|


                                                                       
e|--0-----0----3------0--3--|--5------5--7--------|--8--------10--------|
B|----3-1---3---------------|--6---------8--------|--6--------8---------|
G|----------0---------------|--5---------7--------|--5--------7---------|
D|----------0---------------|--3---------5--------|--5--------0---------|
A|--------------------------|--3---------5--------|---------------------|
E|----------3---------------|---------------------|---------------------|


                                                                                
e|---0----------0-----0-----|--2----------2----------|--7--------5--------4-----|
B|---2-------2--2-----2-----|--4-------4--4----------|--5-----5--5-----5--5-----|
G|*--1----1-----1--1--1--1--|--4----4-----4--4--4----|--6--6-----6--6-----6--6--|
D|*--2----------------------|--4----------4----------|--7--------7--------7-----|
A|---4----------------------|------------------------|--------------------------|
E|--------------------------|------------------------|--------------------------|


                                                      
e|--2--------4--------5-----|--4-----------------------|
B|--4-----4--------4-----4--|--5-----5--7--------5-----|
G|--4--4--------4-----------|--6--6-----------6--------|
D|--4-----------------------|--6-----------6--------6--|
A|--------------------------|--------------------------|
E|--------------------------|--------------------------|


                                                      
e|--------------------------|--------------------------|
B|--4--------5--------4-----|--2--------2-----------2--|
G|--4-----4--------4--------|--2-----2-----2-----2-----|
D|--4--4--------4--------4--|--2--2-----------2--------|
A|--2-----------------------|--4-----------------------|
E|--------------------------|--------------------------|


                                                            
e|--------11b-11--11r-11--9--7---||--------------------2-----|
B|--4--9-------------------------||--4--------5--------------|
G|--4---------------------------*||--4-----4--------4-----4--|
D|--6---------------------------*||--2--2--------2-----------|
A|--6----------------------------||--0-----------------------|
E|--4----------------------------||--------------------------|


                                                                  
e|--4--------2--------|--0----2--4-2-0--------|--------------------|
B|--5--------5--------|--0-----------0--------|--------------------|
G|--4--------4--------|--4-----------4--------|--------------------|
D|--2--------4--------|--2-----------2--------|--4--------2--------|
A|--2--------2--------|--0-----------2--------|--2--------2--------|
E|--------------------|--------------0--------|--0--------0--------|


                    
e|------------------||
B|------------------||
G|------------------|| End !
D|------------------||
A|------------------||
E|------------------||



************************************

| h  Hammer-on
| /  Slide up
| r  Release
| b  Bend

************************************
Suggest correction
comments
print report bad tab
guest
You may want to rate the tab now too:
select rating
Wanna post a correction for this tab? Suggest correction