Oops, an error
Loading. Please wait.
We have Chord Pro version of My Heart Will Go On.
It's the closest thing you can get to the original song and it has interactive parts. Check out the tab »
×

My Heart Will Go On Tab

version 3
version 3

Whole song

Video

10,840 views 9 this week
2 commentsread comments
1 2 3 4 5
x 5
add to favorites
launch autoscroll
font size
0
reset
how to read this tab
guitar tuner
Autoscroll
slow
fast
+/-
esc
set tempo
stop
Author
-------------------------------------------------------------------------------
                         My Heart Will Go On (Acoustic) - Celine Dion
-------------------------------------------------------------------------------
Tabbed by: snowmotion
Email: paulpryan@hotmail.com

Tuning: Standard

Capo at 4th fret

Comments and corrections welcome!

e|-------------------------------------------------0---------------|
B|-1-----------1---0-----1---------0-----1-----3---------1-3-----0-|
G|-----0-----0---------0-----0---0-----0-----0---------0-------0---|
D|---2-----2---------0---------0-----0-----0-----0---2-------0-----|
A|-3-----3-------3-----------------3---------------3-------2-------|
E|-----------------3-------3---------------------------------------|

e|-----------------------------------------------------------------|
B|-1-----1---------0-----1-----0-------------------------------0---|
G|-----0-------0-------0-----0-----0-----2-----------------2-------|
D|---2-------2-------0-----0-----0-----3---3---3-------3-----3---3-|
A|-3-------3-----3-------------------3-------3---3---3---3---------|
E|-----------------3---------------1---------------1---------------|

e|-------------------------------------------------0---------------|
B|-1-----1-----1---0-----1---------0-----1-----3---------1-3-----0-|
G|-----0-----0---------0-----0---0-----0---0-----------0-------0---|
D|---2-----2-----2---0-----0---------0-------0---0---2-------0-----|
A|-3-----3-----3-------------------3-----3-----3---3-------2-------|
E|-----------------3-----3-----3-----------------------------------|

e|---------------------------------------------------------------|
B|-1-----1-----1---0-----1-----0-----------------------------0---|
G|-----0-----0---------0---0-----0-----2-----------------2-------|
D|---2-----2-----2---0-------0-------3---3---3-------3-----3---3-|
A|-3-----3-------------------------3-------3---3---3---3---------|
E|-----------------3-------------1---------------1---------------|

e|-------------------------------3-------1---0---------0---1---|
B|-1-----1---------3---------------1---1---1---3---------------|
G|-----2-------2-----0-----0---0-----2-----------0---0---0---0-|
D|---2-------2---------0-----0---3-------3---------0-----------|
A|-0-------0-----0---------------------------------------------|
E|-----------------3-----3---------------------3---------------|

e|-0------------------------------------------------------------|
B|---1---1--3---1-0-----1-----0-----------------------------0---|
G|--------------------0-----0---0-----2-----------------2-------|
D|-----2------2-----0-----0---------3---3---3-------3-----------|
A|-0------------------------------3-------3---3---3---3---3---3-|
E|----------------3-------------1---------------1---------------|

e|---------------------------------3-----1---0---------0---1---|
B|-1-----1---------3-----------------1-----1---3---------------|
G|-----2-------2-----0---0-----0-------2---------0---0---0---0-|
D|---2-------2---2-----0-----0---0-3-----3---------0-----------|
A|-0-------0---------------------------------------------------|
E|-----------------3-------3-------------------3---------------|

e|-0-------------------------------------------0-------------------------------|
B|---1-----3---1-0-----1-----0---0-----1-----3-------1-3-----0-1-----1-------1-|
G|-------2-----------0-----0---------0-----0-------0-------0-------0-----0---0-|
D|-----2-----2-----0-----0-----0---0-----0-------2-------0-------2-----2-----2-|
A|-0-----------------------------3-------------3---------------3-----------3-3-|
E|---------------3-------------------------------------3-----------------------|


************************************

| /   slide up
| \   slide down
| h   hammer-on
| p   pull-off
| ~   vibrato
| +   harmonic
| x   Mute note
| b   Bend
| pb  Pre-bend
| br  Bend release
| pbr Pre-bend release
| brb Bend release bend

************************************
Suggest correction
comments
print report bad tab
2 comments total.
0 reply
kaelsohappy1 32 Aug 11, 2014 04:51 AM

wow so nice!!

0 reply
rnakashima 65 Aug 01, 2015 10:58 AM

Thanks for writing it out. I feel like there's a chord or two that could be different but it sounds nice how you have it too.

guest
You may want to rate the tab now too:
select rating
Wanna post a correction for this tab? Suggest correction