Oops, an error
Loading. Please wait.

My Heart Will Go On Tab

version 4
version 4

Whole song

Video

14,043 views 21 this week
1 commentread comment
1 2 3 4 5
please rate
add to favorites
launch autoscroll
font size
0
reset
how to read this tab
guitar tuner
Autoscroll
slow
fast
+/-
esc
set tempo
stop
Help us to improve Ultimate-Guitar.com Take our survey!
×
Author
Difficulty
intermediate
-------------------------------------------------------------------------------
                             My Heart Will Go On - Celine Dion
-------------------------------------------------------------------------------
Tabbed by: Daryl Maquiran
Email: Daryl_Maquiran@yahoo.com



*Capo goes on the 4th fret*


Tuning: Standard

Intro:

e|------------------------------2~-------------------------------------------|
B|--0--2--2/4---4h5p4--0--0h2-------4--2--0----------------------------------|
G|-------------------------------------------1-------------------------------|
D|----------------------------------------------4~---------------------------|
A|---------------------------------------------------------------------------|
E|---------------------------------------------------------------------------|

e|------------------------------2----2---2h4--4~--2---------4--6--6/7--6-----|
B|--0--2--2/4---4h5p4--0--0h2------4-----------------4--2~----------------4~-|
G|---------------------------------------------------------------------------|
D|---------------------------------------------------------------------------|
A|---------------------------------------------------------------------------|
E|---------------------------------------------------------------------------|



e|---------------------------------------------------------------------------|
B|---4--5--5/7--4--2~~-------------------------------------------------------|
G|---------------------------------------------------------------------------|
D|---------------------------------------------------------------------------|
A|---------------------------------------------------------------------------|
E|---------------------------------------------------------------------------|


Verse:

"Every night in my dreams..."

e|---------------------------------------------------------------------------|
B|--1-----1------1----0-----1------0-----0------1-----3-----5------3-----0---|
G|----0-----0------0----0------0-----0------0-----0-----0------0-----0-----0-|
D|------2-----2-----------0------0------------0-----0------------0-----0-----|
A|--3------------------------------------------------------------------------|
E|--------------------3------------------1------------------3----------------|

"That is how I know you go on..."

e|---------------------------------------------------------------------------|
B|--1-------1------1-----0-----1-----0---------------------------------------|
G|----0-------0------0-----0-----0-----0---0------2--------------0----2------|
D|------2-------2------------0-----0-----------3---------3----3----3------x2-|
A|--3----------------------------------------3---------3-----3---------------|
E|-----------------------3-----------------1---------1------1----------------|

(Repeat for 2nd verse)


Chorus:

"Near, far, wherever you are..."

e|------------------------------------------3-------1-----0------------------|
B|--1------1------1------3-----3------0--------1------1-----1---3------------|
G|-----2-----2-------2-----0-----0------0---------2-----2-----------0--------|
D|-------2------2------------0-----0--------3---------------------0----------|
A|--0------------------------------------------------------------------------|
E|-----------------------3--------------------------------------3------------|

"I believe that the heart does go on..."

e|--0-1--0--------------------------------------------------------------------|
B|---------------3-------1-----0-------1------0-------------------------------|
G|------------2-----2------2--------0----0------0---0------2-------------0---2|
D|----------2---------2-----------2---------2------------3--------3----3---3--|
A|-------0---------------------2-----------------------3--------3-----3-------|
E|--------------------------------------------------1--------1------1---------|

"Once more you open the door..."

e|------------------------------------------3-------1-----0------------------|
B|--1------1------1------3-----3------0--------1------1-----1---3------------|
G|-----2-----2-------2-----0-----0------0---------2-----2-----------0--------|
D|-------2------2------------0-----0--------3---------------------0----------|
A|--0------------------------------------------------------------------------|
E|-----------------------3--------------------------------------3------------|


"And you're here in my heart"

e|--0-1--0-------------------------------------------------------------------|
B|---------------3-------1-----0-------1------0-----0------1----3----5-------|
G|------------2-----2------2--------0----0------0-----0------0-----0----0----|
D|----------2---------2-----------2---------2------------0-----0----------0--|
A|-------0---------------------2---------------------------------------------|
E|--------------------------------------------------1----------------3-------|


(Continued...)


e|---------------------------------------------------------------------------|
B|---3------0----------------------------------------------------------------|
G|-----0------0--------------------------------------------------------------|
D|-------0-------------------------------------------------------------------|
A|---------------------------------------------------------------------------|
E|---------------------------------------------------------------------------|

(Repeat the verse and chorus)

Verse: "Love can touch us one time..."

Chorus: "Near, far, wherever you are..."



Ending:

"You're here, there's nothing I fear"

e|------------------------------------------3-------1-----0------------------|
B|--1------1------1------3-----3------0--------1------1-----1---3------------|
G|-----2-----2-------2-----0-----0------0---------2-----2-----------0--------|
D|-------2------2------------0-----0--------3---------------------0----------|
A|--0------------------------------------------------------------------------|
E|-----------------------3--------------------------------------3------------|


"And I know that my heart will go on...."


e|--0-1--0--------------------------------------------------------------------|
B|---------------3-------1-----0-------1------0-------------------------------|
G|------------2-----2------2--------0----0------0---0------2-------------0---2|
D|----------2---------2-----------2---------2------------3--------3----3---3--|
A|-------0---------------------2-----------------------3--------3-----3-------|
E|--------------------------------------------------1--------1------1---------|


"We'll stay forever this way..."

e|------------------------------------------3-------1-----0------------------|
B|--1------1------1------3-----3------0--------1------1-----1---3------------|
G|-----2-----2-------2-----0-----0------0---------2-----2-----------0--------|
D|-------2------2------------0-----0--------3---------------------0----------|
A|--0------------------------------------------------------------------------|
E|-----------------------3--------------------------------------3------------|


"You are safe in my heart..."


e|--0-1--0-------------------------------------------------------------------|
B|---------------3-------1-----0-------1------0-----0------1----3----5-------|
G|------------2-----2------2--------0----0------0-----0------0-----0----0----|
D|----------2---------2-----------2---------2------------0------0----------0-|
A|-------0---------------------2---------------------------------------------|
E|--------------------------------------------------1----------------3-------|


(Continued...)


e|------------------0~-------------------------------------------------------|
B|---3------0-------1~-------------------------------------------------------|
G|-----0------0-----0~-------------------------------------------------------|
D|-------0----------2~-------------------------------------------------------|
A|------------------3~-------------------------------------------------------|
E|---------------------------------------------------------------------------|


Enjoy! ^___^


************************************

| /   slide up
| \   slide down
| h   hammer-on
| p   pull-off
| ~   vibrato
| +   harmonic
| x   Mute note
| b   Bend
| pb  Pre-bend
| br  Bend release
| pbr Pre-bend release
| brb Bend release bend

************************************
Suggest correction
Give kudos to tab author, rate the tab!
1 2 3 4 5
comments
print report bad tab
1 comment total.
0 reply
furkanarasli 126 wrote on September 11 2011, 01:27 pm

Can Played With Acoustic finger-style+With Thumb Picking>>>Frikkin Awesome

guest
You may want to rate the tab now too:
select rating
Please do not post tabs as comments. Select "correction" instead!