Oops, an error
Loading. Please wait.

My Heart Will Go On Bass Tab

version 1
version 1

Whole song

20,787 views 33 this week
no commentswrite comment
1 2 3 4 5
accurate
x 4
add to favorites
launch autoscroll
font size
0
reset
guitar tuner
Autoscroll
slow
fast
+/-
esc
set tempo
stop
Help us to improve Ultimate-Guitar.com Take our survey!
×
Honestly, this is the HARDEST Bass Tab I ever wrote!  All the measures HAVE to be timed 
if not, it won't sound right!  So to help time this song perfectly, I've placed Time 
above each bar.  And each (~) symbol is how many seconds you hold each note.


INTRO (Play softly)

  :01        :10
G|----------|----------------|
D|----------|----------------|
A|----------|----------------|
E|-9~~7~~5~~|9~~7~~5~~7~~----|
B|----------|------------4~~-|

REST UNTIL :40

MAIN RIFF (Play softly)

  :40		      :49
G|-------------------|-----------------|
D|-------------------|-----------------|
A|------------10-9---|-----------------|
E|-9~~7~~5~~9~-----9-|---7~~5~~3~2~----|
B|-------------------|4~~----------4~~-|

PLAY A LITTLE STRONGER↓

  1:01		              1:21
G|---------------------------|--------------------------|
D|---------------------------|--------------------------|
A|---------------------------|----------------------7~~-|
E|-7~~5~~7~~9~~7~~5~~3~2~----|7~~5~~7~~9~~7~~5~~7~7~----|
B|-----------------------4~~-|--------------------------|

  1:40		         1:50
G|----------------------|------------------------|
D|----------------------|------------------------|
A|------------10-9------|------------------------|
E|----7~~5~~9~-----10-9-|---7~~5~~3~33-55-77-9~~-|
B|-4~~------------------|4~~---------------------|

  1:59			      2:21
G|---------------------------|--------------------------|
D|---------------------------|--------------------------|
A|---------------------------|--------------------------|
E|-7~~5~~9~~9~~7~~5~~3~2~----|7~~5~~7~~9~~7~~5~~3~2~----|
B|-----------------------4~~-|----------------------4~~-|

  2:41		       2:58
G|--------------------|------------------|
D|--------------------|------------------|
A|--------------------|------------------|
E|-7~~5~~7~~9~~7~~5~~-|9~~77~~55~~332----|
B|--------------------|--------------7~~-|

  3:07
G|---------------|
D|---------------|
A|---------------|
E|-9~~7~~5~~7~8~-|
B|---------------|

  3:17
G|---------------------------|
D|---------------------------|
A|-8~~6~~4~~6~~8~~6~~4~~3~1~/|
E|---------------------------|
B|---------------------------|

  3:37			     3:57
G|--------------------------|------------------------|
D|--------------------------|------------------------|
A|-8~~6~~4~~6~~8~~6~~4~~6~6~|8~~6~~4~~4~10-8764~~6~~-|
E|--------------------------|------------------------|
B|--------------------------|------------------------|

  4:02 x2
G|------------------|
D|------------------|
A|-4~~4~10-8764~~6~~|
E|------------------|
B|------------------|

  4:17		       4:40
G|--------------------|------------------------|
D|--------------------|------------------------|
A|-4~~6~~4~~6~~-------|------------------------|
E|-------------4~~~~~~|6~~4~~~~4~~~~~6~~4~~~~~~|
B|--------------------|------------------------|
Suggest correction
comments
print report bad tab
guest
You may want to rate the tab now too:
select rating
Wanna post a correction for this tab? Suggest correction