Oops, an error
Loading. Please wait.
We have Chord Pro version of My Heart Will Go On.
It's the closest thing you can get to the original song and it has interactive parts. Check out the tab »
×

My Heart Will Go On tab

version 1
version 1

Whole song

Video

535,391 views 1,272 this week
7 commentsread comments
1 2 3 4 5
x 30
add to favorites
×
Save as Personal and add changes to this tab that will be seen only by you. Learn more ›
×
You can save this tab as Personal to edit and correct it or add notes. All changes will be seen only by you. Learn more »
launch autoscroll
font size
0
reset
how to read this tab
guitar tuner
edit
Autoscroll
slow
fast
+/-
esc
set tempo
stop
My Heart Will Go On
                                  By Celine Dion
                     from the Original Motion Picture Soundtrack
                                    "Titanic"

                       Transcribed by Jose Rufino  junn@skyinet.net


    [Song Intro] ( The Piano or flute intro
                   sounds more accurate but with
                   proper technique this riff should
                   sound like the one in the CD)

     Part 1
     e|---------------------------------------------|
     B|---------------12-10-9-7-5-------------------|
     G|-9-11-13--11-9-------------6-4---------------|
     D|---------------------------------------------|
     A|---------------------------------------------|
     E|---------------------------------------------|

     Part 2
     e|---------------------------------------------|
     B|--------------12-10-12-14-16-12--------------|
     G|-9-11-13-11-9--------------------------------|
     D|---------------------------------------------|
     A|---------------------------------------------|
     E|---------------------------------------------|


     [In Between verses]

     Every night in my dreams..................
     e|---------------------------------------------|
     B|-----------------------9---------------------|
     G|-9-99-9-8-9---9-8-9-11---11------------------|
     D|---------------------------------------------|
     A|---------------------------------------------|
     E|---------------------------------------------|

     That is How I know.........................
     e|--------------------------------------------|
     B|--------------------------------------------|
     G|-9-99-9-8-9---8-----------------------------|
     D|----------------9---------------------------|
     A|--------------------------------------------|
     E|--------------------------------------------|

    
     [Chorus] 

     Near, Far , wherever you are................
     e|---------------------------------------------|
     B|-5--7-----12-10-9--7--9-10-9-7-5-4-5-4-0-----|
     G|---------------------------------------------|x2
     D|-------9-------------------------------------|
     A|---------------------------------------------|
     E|---------------------------------------------| 

     and your here in my heart and my.............
     e|-------------------------------------------|
     B|--5-4-5-7-9-7-5----------------------------|
     G|-------------------------------------------|
     D|-------------------------------------------|
     A|-------------------------------------------|
     E|-------------------------------------------|

     just repeat all over when stanza 2 comes in but when
     the verse " You're here there nothing I fear " comes in
     just raise everything 4 frets higher.


[Lyric]

Every night in my dreams
I see you I feel you
that is how I know you go on.
Far across the distance
and spaces between us
you have come to show you go on.
Near, far, where ever you are
I believe that the heart does go on.
Once more, you open the door
and you're here in my heart and
my heart will go on and on.
Love can touch us one time
and last for life time
and never let go till we're gone.
Love was when I loved you, one true time I hold to
In my life we'll always go on.
Near, far wher ever you are
I believe that the heart does go on.
Once more, you open the door
and you're here in my heart
and my heart will go on and on.
You're hear there's nothing I fear
and I know that my heart will go on.
We'll stay forever this way
You are safe in my heart
and my heart will go on and on.

            
            
Suggest correction
Creating personal tab
Creating personal tab
You can edit any tab online and save it as your Personal.

You can edit, replace or remove any tab part or add personal notes – all changes will be seen only by you.

Personal tabs can be accessed anytime from any device, even offline.
Learn more »
comments
print report bad tab
7 comments total. Showing first comments.
-1 reply
dertodesengel 10 Jan 12, 2002 07:00 PM

this tab sucks so much dudE!! work more in tones this is just a piece of fuckin crap no offense but do u know how to creat tabs??!!!

0 reply
PaRaBoLaTooL420 80 Nov 28, 2003 07:00 PM

This is how I...........
---------------------------------------------
---------------------------------------------
--9-99-9-8-9---8-----------------------------
-----------------9---------------------------
---------------------------------------------
---------------------------------------------

Thats how that part should go - keeping along with the little musical quality this tab has to it.

0 reply
andreas5 793 Dec 14, 2005 02:18 AM

totaly wrong man

guest
Wanna post a correction for this tab? Suggest correction