Oops, an error
Loading. Please wait.
We have Chord Pro version of My Heart Will Go On.
It's the closest thing you can get to the original song and it has interactive parts. Check out the tab »
×

My Heart Will Go On tab

version 16
version 16

Whole song

Video

1,252 views 18 this week
no commentswrite comment
1 2 3 4 5
1 last vote to show rating
add to favorites
×
Save as Personal and add changes to this tab that will be seen only by you. Learn more ›
×
You can save this tab as Personal to edit and correct it or add notes. All changes will be seen only by you. Learn more »
launch autoscroll
font size
0
reset
how to read this tab
guitar tuner
edit
Autoscroll
slow
fast
+/-
esc
set tempo
stop
About this tab version
This is a simple version intended for beginner fingerstyle players. I have also included the link to my video tutorial for easy learning. Was this info helpful? Yes No
My Heart Will Go On by Celine Dion

Tabs written and arranged by Edwin-E (in YouTube)
Blog: http://guitarplucking.blogspot.com
Facebook Page: http://facebook.com/EdwinEGuitar

Video Tutorial:  http://www.youtube.com/watch?v=SSDF_iLjxFg

Capo on 4th Fret

Intro:
C-G/B-F-G (2x)

E|-------------0--1p0-----------3--0--------------------3--]
B|--1--3/5--5----------3--1--3--------1-----------------0--]
G|---------------------------------------2--0--------0--0--]
D|------------------------------------3-----------0--------]
A|----------3----------------2-----------------2-----------]
E|------------------------------------------3--------------]

E|--------0-----------0--0--1p0-----------3--0--3--5--3--0--------------3--]
B|--1--3-----------1-------------3--1--3--------------------3-----------0--]
G|--------------0----------------------------------------------------0--0--]
D|-----------2-------------------------------------3--------------0--------]
A|--------3----------------------------2-----------------------2-----------]
E|----------------------------------------------------------3--------------]



I

E|-----------------]
B|--1--1--1--1--1--]
G|-----------------]
D|-----------------]
A|--3-----------2--]
E|-----------------]
 C              G/B
 Every night in my dreams 


E|--------------0-----]
B|--1--0--1--3-----3--]
G|--------------------]
D|-----3--------------]
A|--------------------]
E|--------------3-----]
    F          G
 I see you, I feel you


E|--------------------------3--]
B|--1--1--1--1--0--1--1-----0--]
G|-----------------------2--0--]
D|-----------------------3--0--]
A|--3-----------2-----------2--]
E|--------------------------3--]
 C            G/B          F G
 That's how I know you go on



E|--------------------0----------------0--]
B|--1--------1--1--------1--0-----1-------]
G|--------0--------0-----------------0----]
D|-----2-----------------------0----------]
A|--3-----------------------2-------------]
E|----------------------------------------]
C               G/B
 Far across the distance
 

E|--------------1-----------0--------1p0-----]
B|--1--0--1--------1-----3----------------3--]
G|-----------2--------2----------------------]
D|-----3--------------------------0----------]
A|-----------------------------2-------------]
E|--------------------------3----------------]
     F          G
 And spaces between us


E|--------------------0--------------------------3--1-----------------3--]
B|--1--------1--1--------1--0-----1--1-----1-----------1--3-----------0--]
G|--------0--------0--------------------2-----2--------------------0--0--]
D|-----2-----------------------0--------3-----------------------0--------]
A|--3-----------------------2--------------------------------2-----------]
E|--------------------------------------------------------3--------------]
 C                G/B         F G
 You have come to show you go on


E|--------------0-----------------------3--------1--0-----------]
B|--1--------1-----1-----3--------3--------1-----------3--------]
G|--------2-----------2--------0-----0--------2-----------------]
D|-----2--------------------0-----------3--------------------0--]
A|--0--------------------2--------------------------------2-----]
E|-----------------------------------------------------3--------]
 Am    G/B      F         G
 Near, far, wherever you are


E|--0--1--0--------------------------------------3--1--0-----------------3--]
B|-----------------1--3--1--0-----1--3-----1--------------1--3-----------0--]
G|--------------2-----------------------2-----2-----------------------0--0--]
D|-----------2-----------------0--------3--------------------------0--------]
A|--------0-----------------2-----------------------------------2-----------]
E|-----------------------------------------------------------3--------------]
     Am             G/B           F G
 I believe that the heart does go on


E|--------------0-----------------------3--------1--0--------------]
B|--1--------1-----1-----3--------3--------1-----------3-----------]
G|--------2-----------2--------0-----0--------2-----------------0--]
D|-----2--------------------0-----------3--------------------0-----]
A|--0--------------------2--------------------------------2--------]
E|-----------------------------------------------------3-----------]
 Am   G/B      F         G 
 Once more you open the door

E|--0--1--0--------------------------]
B|-----------------1--3--1--0-----1--]
G|--------------2--------------------]
D|-----------2-----------------0-----]
A|--------0-----------------2--------]
E|-----------------------------------]
            Am         G/B
 And you're here in my heart 


E|--------------0--------------------------0--]
B|--1--0--1--3-----------3--1--1--------1--1--]
G|-----------------------------------0-----0--]
D|-----3--------------0-----------2-----------]
A|-----------------2-----------3--------------]
E|--------------3-----------------------------]
         F            G      C
 And my heart will go on and on


II (follow chords and Tab from I)

 Love can touch us one time 
 And last a life time
 And never let go 'til we're one
 Love was when I loved you
 One true time I hold to
 In my life we'll always go on

 Near, far, wherever you are
 I believe that the heart does go on
 Once more you open the door
 And you're here in my heart
 And my heart will go on and on


Interlude:
E|-------------0--1p0-----------3--0--------------------3--]
B|--1--3/5--5----------3--1--3--------1-----------------0--]
G|---------------------------------------2--0--------0--0--]
D|------------------------------------3-----------0--------]
A|----------3----------------2-----------------2-----------]
E|------------------------------------------3--------------]

E|--------0--------1p0-----------3--0--3--5--7--9--10--]
B|--1--3----------------3--1--3------------------------]
G|--------------0--------------------------------------]
D|-----------2----------------------------3------------]
A|--------3-------------------2------------------------]
E|-----------------------------------------------------]



E|--------------2--------2-----7--------5-----2--------]
B|--5--------5-----4--------------5--------9-----4-----]
G|--------6-----------4-----4--------6--------------4--]
D|-----6-----------------------------------------------]
A|--4-----------2-----------------------------2--------]
E|-----------------------------5-----------------------]
 C#m    B            A         B
 Your here, there's nothing I fear


E|--4--5--4--------------------2-----------0-----------------------]
B|-----------5-----7--5--4--5-----2-----------2-----------------4--]
G|--------------6-----------------------2--------2-----------4-----]
D|-----------------------------------2--------------2-----4--------]
A|--------4--------------2--------0--------------------2-----------]
E|-----------------------------------------------------------------]
       C#m           B            A  B
 And I know that my heart will go on


E|--------------2--------2-----7--------5-----2--------]
B|--5--------5-----4--------------5--------9-----4-----]
G|--------6-----------4-----4--------6--------------4--]
D|-----6-----------------------------------------------]
A|--4-----------2-----------------------------2--------]
E|-----------------------------5-----------------------]
 C#m    B      A          B
 We'll stay forever this way


E|--4--5--4-----------------]
B|-----------5-----7--5--4--]
G|--------------6-----------]
D|--------------------------]
A|--------4--------------2--]
E|--------------------------]
         C#m        B
 You are safe in my heart


E|-----------2--4--2--0--0--------------0--]
B|--4--4--5--------------------------0-----]
G|--------------------------------1--------]
D|-----------------------------2-----------]
A|-----0--------2-----------2--------------]
E|-----------------------0-----------------]
         A            B      E
 And my heart will go on and on

            
            
Suggest correction
Creating personal tab
Creating personal tab
You can edit any tab online and save it as your Personal.

You can edit, replace or remove any tab part or add personal notes – all changes will be seen only by you.

Personal tabs can be accessed anytime from any device, even offline.
Learn more »
Give kudos to tab author, rate the tab!
1 2 3 4 5
comments
print report bad tab
guest
You may want to rate the tab now too:
select rating
Wanna post a correction for this tab? Suggest correction