Oops, an error
Loading. Please wait.

My Heart Will Go On Tab

version 3
version 3

Whole song

35,299 views 21 this week
no commentswrite comment
1 2 3 4 5
x 3
add to favorites
launch autoscroll
font size
0
reset
how to read this tab
guitar tuner
Autoscroll
slow
fast
+/-
esc
set tempo
stop
Help us to improve Ultimate-Guitar.com Take our survey!
×
Author
Difficulty
intermediate
I've wrote the song in power tabs but the song can be played with or without dist. I 
to play it with dist 'cus it makes the ballad turn into a rocksong ;)

Song: My heart will go on (power tabs)
Artis: Celine Dion
Tuning: Standard

s = slide
x = reduced

Intro (this piece is ofthe played in the movie "Titanic")
|--------------------------------------------------------------------|
|--------------------------------------------------------------------|
|--------------------------------------------------------------------|
|-----------------7-------------------------------7-----7-9---7------|
|-5-7-9---9-7-5-7-----9-7-5-------5-7-9---9-7-5-7-----9---------97s--|
|---------------------------7-5--------------------------------------|

Verse
|-----------------------------------------------------------------------------|
|-----------------------------------------------------------------------------|
|-----------------------------------------------------------------------------|
|-9-9-9-9-9-9-9-8-8-9-9-9-9-9-9-9-8-8-9-9-9-9-9-11-11-13-13-13-13-11-11-11-11-|
|-7-7-7-7-7-7-7-6-6-7-7-7-7-7-7-7-6-6-7-7-7-7-7--9--9-11-11-11-11--9--9--9--9-|
|-x-x-x-x-x-x-x-x-x-x-x-x-x-x-x-x-x-x-x-x-x-x-x--x--x--x--x--x--x--x--x--x--x-|
 "Every night in my dreams..."
 "Far across the distance..."

|-------------------------------------------------------------------|
|-------------------------------------------------------------------|
|-------------------------------------------------------------------|
|-9-9-9-9-9-9-9-8-8-9-9-9-9-9-9-9-9---------------------------------|
|-7-7-7-7-7-7-7-6-6-7-7-7-7-7-7-7-7-9-9-9-9-9-9-9-9-9-9-9-9-9-9-9-9-|
|-x-x-x-x-x-x-x-x-x-x-x-x-x-x-x-x-x-7-7-7-7-7-7-7-7-7-7-7-7-7-7-7-7-|
 "That is how I..."
 "You have come to..."

Chorus
|-------------------------------------------------------------------------|
|-------------------------------------------------------------------------|
|---------------------------------------11-11-11-11-9-8-x-----------------|
|-9-9-9-9-9-9-9-9-11-11-11-11-11-11-11---9--9--9--9-7-6-x---11---11-11-11-|
|-7-7-7-7-7-7-7-7--9--9--9--9--9--9--9-9-x--x--x--x-x-x-x----9----9--9--9-|
|-x-x-x-x-x-x-x-x--x--x--x--x--x--x--x-7---------------------x----x--x--x-|
 "Near, far..."
 "Once more..."

------------------------------------------------------------------------------------|
------------------------------------------------------------------------------------|
------------------------------------------------------------------------------------|
-13-13-14-14-13-13-13-13-11-9-9-8-8-9-9-9-9-9-9-9-9---------------------------------|
-11-11-12-12-11-11-11-11--9-7-7-6-6-7-7-7-7-7-7-7-7-9-9-9-9-9-9-9-9-9-9-9-9-9-9-9-9-|
--x--x--x--x--x--x--x--x--x-x-x-x-x-x-x-x-x-x-x-x-x-7-7-7-7-7-7-7-7-7-7-7-7-7-7-7-7-|
"I belive..."                               "...go on."

------------------------------------------------------------------------------------------------|
------------------------------------------------------------------------------------------------|
------------------------------------------------------------------------------------------------|
-13-13-14-14-13-13-13-13-11-9-9-8-8-9-9-9-9-9-9-9-9-8-8-9-9-9-9-9-11-11-13-13-13-13-11-11-11-11-|
-11-11-12-12-11-11-11-11--9-7-7-6-6-7-7-7-7-7-7-7-7-6-6-7-7-7-7-7--9--9-11-11-11-11--9--9--9--9-|
--x--x--x--x--x--x--x--x--x-x-x-x-x-x-x-x-x-x-x-x-x-x-x-x-x-x-x-x--x--x--x--x--x--x--x--x--x--x-|
"And you're here..."                                           "...go on..."


I wrote the tabs straight but you can play the song in a different tempo.
Thats it :>
Tabbed by cronan89
Suggest correction
Give kudos to tab author, rate the tab!
1 2 3 4 5
comments
print report bad tab
guest
You may want to rate the tab now too:
select rating
Wanna post a correction for this tab? Suggest correction