Oops, an error
Loading. Please wait.

My Heart Will Go On Tab

version 5
version 5

Whole song

335,846 views 198 this week
19 commentsread comments
1 2 3 4 5
x 136
add to favorites
launch autoscroll
font size
0
reset
how to read this tab
guitar tuner
×
Best way to learn
"My Heart Will Go On"
Autoscroll
slow
fast
+/-
esc
set tempo
stop
Author
Difficulty
novice
Song: My Heart Will Go On (notes)
Artis: Celine Dion
Tuning: Standard

I first tabbed "My Heart Will Go On (ver. 3)" but it thought that was quite hard for
to read due the fast tempo. So i decided to write the same tab in notes and original tempo.

[Intro]
(This piece is often played in the movie "Titanic")
e|-----------------------------------------------------------------------------|
B|-----------------------------------------------------------------------------|
G|-----------------------------------------------------------------------------|
D|-------------------9----------------------------------9------9-11---9--------|
A|-7-9-11---11-9-7-9-----11-9-7-------7-9-11---11-9-7-9-----11-----------11\9--|
E|------------------------------9-7--------------------------------------------|


[Verse]
e|-------------------------------------------------|
B|-------------------------------------------------|
G|-------------------------------------------------|
D|-------------------------------------------------|
A|-7--7-7-7-6-7--7-6-7--9-11--9--7--7-7-7-6-7--7---|
E|-----------------------------------------------7-|
                                                let ring

[Chorus]
e|-------------------------------------------------------------|
B|-------------------------------------------------------------|
G|-------------------------------------------------------------|
D|---------9--7\6----------------------------------------------|
A|-7--9------------9-----11--12-11---9--7-6--7---6-------------|
E|-------7-----------------------------------------9------7----|

e|-----------------------------------------------------------------|
B|-----------------------------------------------------------------|
G|-----------------------------------------------------------------|
D|---------9--7\6--------------------------------------------------|
A|-7--9------------9-----11-12-11--9-7-6-7--7-6-7--9-11--9s7-7-----|
E|-------7---------------------------------------------------------|


As you've noticed it's written in a low tune (one octave too low) but you can play 
the same order in any tuning you like.

************************************

\ =  Slide down
s =  Legato slide

************************************
Suggest correction
comments
print report bad tab
19 comments total. Showing first comments.
0 reply
Innocent04 10 Mar 02, 2007 11:21 PM

Great tab! Good job ;)

0 reply
cronan 167 Mar 04, 2007 08:23 AM

thx man :D

0 reply
Syn_66 20 Apr 10, 2007 03:06 PM

cool beans nice tab!! :D

guest
You may want to rate the tab now too:
select rating
Wanna post a correction for this tab? Suggest correction