Oops, an error
Loading. Please wait.

My Heart Will Go On Tab

version 7
version 7

Whole song

233,933 views 75 this week
4 commentsread comments
1 2 3 4 5
x 70
add to favorites
launch autoscroll
font size
0
reset
how to read this tab
guitar tuner
×
Best way to learn
"My Heart Will Go On"
Autoscroll
slow
fast
+/-
esc
set tempo
stop
that is a slow song

e|-------(4)------(7)--5-4-0----------(4)------(7)----7-(9)-7-(2)------------|
B|---5-7----7-5-7------------2-0--5-7-----7-5-7-----9------------------------|
G|----------------------------2----------------------------------------------|
D|---------------------------------------------------------------------------|
A|---------------------------------------------------------------------------|
E|---------------------------------------------------------------------------|

e|---------------------------------------------------------------------------|
B|----------------------------9----------------------------------------------|
G|---(9)-9-9-9-8-9--9-8-9--11---11--9-9-9-9-8-9--8---------------------------|
D|-------------------------------------------------(9)-----------------------|
A|---------------------------------------------------------------------------|
E|---------------------------------------------------------------------------|

e|---------------------------------------------------------------------------|
B|--------------(12)-10-9-7--9-10-9--7-5-4-5--5-4-5--7-(9)-(7)-(5)-----------|
G|---(9)-(11)-5--------------------------------------------------------------|
D|---------------------------------------------------------------------------|
A|---------------------------------------------------------------------------|
E|---------------------------------------------------------------------------|

e|-------(4)------(7)--5-4-0----------(4)------(7)----7-(9)-7-(2)------------|
B|---5-7----7-5-7------------2-0--5-7-----7-5-7-----9------------------------|
G|----------------------------2----------------------------------------------|
D|---------------------------------------------------------------------------|
A|---------------------------------------------------------------------------|
E|---------------------------------------------------------------------------|

************************************

|  s   Slide
| (n)  Hold

************************************
Suggest correction
comments
print report bad tab
4 comments total. Showing first comments.
+3 reply
salamenco 10 Sep 26, 2011 07:36 AM

I was just wondering ist the third note in the third row allright?(G string 5 fret) it sounds a bit funny

+3 reply
Guitarspree 10 Apr 08, 2012 08:17 AM

I agree with Salemenco. It should be G string, 4th fret.

+1 reply
Mars Sevenfold 241 Jul 31, 2013 04:39 AM

you should tab out the whole song.. please?

but it sound great!! good tabs bro.. so i give u 4*

guest
You may want to rate the tab now too:
select rating
Wanna post a correction for this tab? Suggest correction