Oops, an error
Loading. Please wait.

Leaving All Behind intro tab

version 2
version 2

Intro

Whole song

Interactive

1,287 views 1 this week
3 commentsread comments
1 2 3 4 5
x 4
add to favorites
×
Save as Personal and add changes to this tab that will be seen only by you. Learn more ›
×
You can save this tab as Personal to edit and correct it or add notes. All changes will be seen only by you. Learn more »
launch autoscroll
font size
0
reset
how to read this tab
guitar tuner
edit
Autoscroll
slow
fast
+/-
esc
set tempo
stop
Difficulty
intermediate
Tabbed by Ricard Solà

Leaving all behind (guitar intro) - Cellador

Turn Down 1/2 Step

E|-------------------------------|-------------------------------|
G|-------------------------------|-------------------------------|
B|-0-0-3-0-0-2-0-0-3-0-0-2-0-0-3-|-0-0-3-0-0-2-0-0-3-0-0-2-0-0-3-|
D|-------------------------------|-------------------------------|
A|-------------------------------|-------------------------------|
E|-------------------------------|-------------------------------|


E|---------------------------------|-------------------------------|
G|---------2-2---------2-2---------|-------------------------------|
B|-----3-3---------3-3---------3-3-|-----3-3-2-2-----5-5-5-3-3-3-2-|
D|-3-3---------3-3---------3-3-----|-1-1---------1-1---------------|
A|---------------------------------|-------------------------------|
E|---------------------------------|-------------------------------|

The rest of the tabs of this song have mistakes in the melody, so I decided to upload 
correct one which I've tabbed by ear. I think that it's 100% ok, but if you think that 
an error, e-mail me at:  riki_calaf@hotmail.com

Thanks and Go On Rocking!

            
            
Suggest correction
Creating personal tab
Creating personal tab
You can edit any tab online and save it as your Personal.

You can edit, replace or remove any tab part or add personal notes – all changes will be seen only by you.

Personal tabs can be accessed anytime from any device, even offline.
Learn more »
comments
print report bad tab
3 comments total.
0 reply
rikisola 118 Sep 22, 2007 03:10 AM

What a &·%!ing mistake, sorry. I failed putting the 2 freed.
I'll upload a guitar pro version if I have time.

E|---------------------------------|-------------------------------|
G|---------------------------------|-------------------------------|
B|-----3-3-2-2-----3-3-2-2-----3-3-|-----3-3-2-2-----5-5-5-3-3-3-2-|
D|-3-3---------3-3---------3-3-----|-1-1---------1-1---------------|
A|---------------------------------|-------------------------------|
E|---------------------------------|-------------------------------|

0 reply
johnnyolives 10 Nov 07, 2007 02:13 PM

your tab is way off this is a tremolo playing intro, the way you have it only fits if your can't play fast on one string

0 reply
rikisola 118 Nov 25, 2010 06:23 AM

I've sent the whole tab of the song, except for the 2nd solo which was impossible to tab.
When they aprove it, you will be able to download it, and you will see that this is the way they play the song.
You can watch to the videoclip to contrast if you want ;)

guest
Wanna post a correction for this tab? Suggest correction