Oops, an error
Loading. Please wait.

Afraid This Time Tab

version 1
version 1

Whole song

2,918 views 1 this week
2 commentsread comments
1 2 3 4 5
1 last vote to show rating
add to favorites
launch autoscroll
font size
0
reset
how to read this tab
guitar tuner
Autoscroll
slow
fast
+/-
esc
set tempo
stop
Help us to improve Ultimate-Guitar.com Take our survey!
×
Author
Difficulty
Tuning
novice
C G C F A D
Artist : Celldweller
Song   : Afraid This Time
Album  : Celldweller (self-titled)
Tuning : Drop C

Intro (clean acoustic) 
D|--------------------------------------------------------------0-|
A|--------------------------------------------------------------0-|
F|----7---------9\-----2-----0--2-----7---------9\-----2-----0--4-|
C|-5-----/7---------0-----2--------5-----/7---------0-----2-----5-|
G|-----------0-------------------------------0------------------7-|
C|----------------------------------------------------------------|

Verse 
D|-------------------------------------------------------------------|
A|-------------------------------------------------------------------|
F|-------------------------------------------------------------------|
C|-5----5--5--5-----2----2--2--2-----5--5-----7--7-----2----2--2--2--|
G|-5----5--5--5-----2----2--2--2-----5--5-----7--7-----2----2--2--2--|
C|-5----5--5--5-----2----2--2--2-----5--5-----7--7-----2----2--2--2--|

Pre-chorus 
D|----------------------------|
A|----------------------------|
F|----------------------------| 
C|-3----0----7--x--5--x--3----|
G|-3----0----7--x--5--x--3----|
C|-3----0----7--x--5--x--3----|


Chorus (dist.)
D|-------------------------------------------------------------------|
A|-------------------------------------------------------------------|
F|-------------------------------------------------------------------|
C|-5--5-5-5-5---7--7-7-7-7---0--0-0-0-0---2--2-2-2-2---10-10-10-10---|
G|-5--5-5-5-5---7--7-7-7-7---0--0-0-0-0---2--2-2-2-2---10-10-10-10---|
C|-5--5-5-5-5---7--7-7-7-7---0--0-0-0-0---2--2-2-2-2---10-10-10-10---|


Ending (dist.)
D|-------------------------------------------------|
A|-------------------------------------------------|
F|---------------------------------7-7-7-----------|
C|-2-0-2---2-0-2---2-0-2---2-0-2---7-7-7---0-3-0---|
G|-2-0-2---2-0-2---2-0-2---2-0-2---5-5-5---0-3-0---|
C|-2-0-2---2-0-2---2-0-2---2-0-2-----------0-3-0---|
Suggest correction
Give kudos to tab author, rate the tab!
1 2 3 4 5
comments
print report bad tab
2 comments total.
0 reply
Oo Batou oO 46 Feb 13, 2011 03:02 PM

Nice tab, dude, but I would replace your ending part by this one :

Ending (dist.)
D|-------------------------------------------------|
A|-------------------------------------------------|
F|-------------------------------------------------|
C|-2-0-2---2-0-2---2-0-2---2-0-2---7-7-7---0-3-0---|
G|-2-0-2---2-0-2---2-0-2---2-0-2---5-5-5---0-3-0---|
C|-2-0-2---2-0-2---2-0-2---2-0-2---5-5-5---0-3-0---|

It's closer to the original song (there's more bass at this moment of the song).

0 reply
Oo Batou oO 46 Mar 13, 2011 02:51 PM

EDIT

Ending (dist.)
D|----------------------------------------------------------|
A|----------------------------------------------------------|
F|------------------------------------------7-7-7-----------|
C|-2-0-2-2---2-0-2-2---2-0-2-2---2-0-2-2----7-7-7---0-3-0---|
G|-2-0-2-2---2-0-2-2---2-0-2-2---2-0-2-2----5-5-5---0-3-0---|
C|-2-0-2-2---2-0-2-2---2-0-2-2---2-0-2-2------------0-3-0---|

guest
You may want to rate the tab now too:
select rating
Wanna post a correction for this tab? Suggest correction