Oops, an error
Loading. Please wait.

Fadeaway Tab

590 views 15 this week
no commentswrite comment
1 2 3 4 5
please rate
add to favorites
launch autoscroll
font size
0
reset
how to read this tab
guitar tuner
Tab Pro tools
  • play this tab
  • loop segment
  • change instrument
  • show fretboard
  • metronome
Autoscroll
slow
fast
+/-
esc
set tempo
stop
Difficulty
Tuning
intermediate
C G C F A D
*Drop C*
-------------

Legend
-------------
* - Palm Mute
-------------
Intro

Distortion Guitar

|--------------------------|
|--------------------------|
|--------------------------|
|---4----4--5--x--x--4--5--| x3
|---4----4--5--x--x--4--5--|
|---4----4--5--x--x--4--5--|
Then
|--------------------------|
|--------------------------|
|--------------------------|
|---8----8--7--x--x--5-----|
|---8----8--7--x--x--5-----|
|---8----8--7--x--x--5-----|

Repeat This 2 Times


Tangled in my own reflection
On the way down
Fadeaway...

(Find Strum Patern)
|--------------------------------|
|--------------------------------|
|--9-11-12--7---12-14--7--12-11--|
|--x--x--x--x----x--x--x---x--x--|
|--7--9-10--5---10-12--5--10--9--|
|--------------------------------|


With my hands on my mind I hold wounds that won't mend (Well just stop trying to be 
something that you're not (MAGGOT!), you'll never shake me, or break me, and never overtake me)...

|---------------------------------------------|
|---------------------------------------------|
|---------------------------------------------|
|--4----4--5--------4----4--5--------4----4--5|
|--4----4--5--------4----4--5--------4----4--5|
|--4----4--5--------4----4--5--------4----4--5|
Then
|--------------------------|
|--------------------------|
|--------------------------|
|---4----4--5--x--x--4--5--| x3
|---4----4--5--x--x--4--5--|
|---4----4--5--x--x--4--5--|
Then
|--------------------------|
|--------------------------|
|--------------------------|
|--8--8--8--7--x--x--5-----|
|--8--8--8--7--x--x--5-----|
|--8--8--8--7--x--x--5-----|
Then
|--------------------------|
|--------------------------|
|--------------------------|
|---4----4--5--x--x--4--5--| x2
|---4----4--5--x--x--4--5--|
|---4----4--5--x--x--4--5--|


With my eyes opened wide I can see it's the end...

|--------------------------|
|--------------------------|
|--------------------------|
|--2--2--2--2--2--2--2--2--| x2
|--2--2--2--2--2--2--2--2--|
|--2--2--2--2--2--2--2--2--|

|--------------------------|
|--------------------------|
|--------------------------|
|--0--0--0--0--0--0--0--0--| x2
|--0--0--0--0--0--0--0--0--|
|--0--0--0--0--0--0--0--0--|


Tangled in my imperfections...

(Find Strum Patern)
|--------------------------------|
|--------------------------------|
|--9-11-12--7---12-14--7--12-11--|
|--x--x--x--x----x--x--x---x--x--|
|--7--9-10--5---10-12--5--10--9--|
|--------------------------------|


Normality is not a word I understand at all
I set myself up for the fall...

|--------------------------|
|--------------------------|
|--------------------------|
|--2--2--2--2--2--2--2--2--|
|--2--2--2--2--2--2--2--2--|
|--2--2--2--2--2--2--2--2--|

|--------------------------|
|--------------------------|
|--------------------------|
|--2--2--2--2--2--2--2--2--|
|--2--2--2--2--2--2--2--2--|
|--2--2--2--2--2--2--2--2--|

|--------------------------|
|--------------------------|
|--------------------------|
|--0--0--0--0--0--0--0--0--|
|--0--0--0--0--0--0--0--0--|
|--0--0--0--0--0--0--0--0--|

|--------------------------|
|--------------------------|
|--------------------------|
|--0--0--0--0--0--7--7--7--|
|--0--0--0--0--0--7--7--7--|
|--0--0--0--0--0--7--7--7--|

Withdrawing deep into the hole...

|--------------------------|
|--------------------------|
|--------------------------|
|--2--2--2--2--2--2--2--2--|
|--2--2--2--2--2--2--2--2--|
|--2--2--2--2--2--2--2--2--|

|--------------------------|
|--------------------------|
|--------------------------|
|--2--2--2--2--2--2--2--2--|
|--2--2--2--2--2--2--2--2--|
|--2--2--2--2--2--2--2--2--|

|--------------------------|
|--------------------------|
|--------------------------|
|--0--0--0--0--0--0--0--0--|
|--0--0--0--0--0--0--0--0--|
|--0--0--0--0--0--0--0--0--|

|--------------------------|
|--------------------------|
|--------------------------|
|--0--0--0--0--0--5--5--5--|
|--0--0--0--0--0--5--5--5--|
|--0--0--0--0--0--5--5--5--|

This isolated little cell...

|--------------------------|
|--------------------------|
|--------------------------|
|--2--2--2--2--2--2--2--2--|
|--2--2--2--2--2--2--2--2--|
|--2--2--2--2--2--2--2--2--|

|--------------------------|
|--------------------------|
|--------------------------|
|--2--2--2--2--2--2--2--2--|
|--2--2--2--2--2--2--2--2--|
|--2--2--2--2--2--2--2--2--|

|--------------------------|
|--------------------------|
|--------------------------|
|--0--0--0--0--0--0--0--0--|
|--0--0--0--0--0--0--0--0--|
|--0--0--0--0--0--0--0--0--|

|--------------------------|
|--------------------------|
|--------------------------|
|--0--0--0--0--0--0--0--0--|
|--0--0--0--0--0--0--0--0--|
|--0--0--0--0--0--0--0--0--|
Leaves me cold and faded

Fade away, fade away, fade, away...

|-------------------------|
|-------------------------|
|-------------------------|
|--2--2--2--0----2--0--5--| x20
|--2--2--2--0----2--0--5--|
|--2--2--2--0----2--0--5--|
That this is not reality...

|-----------------------------|
|-----------------------------|
|-----------------------------|
|--*2--*2--*2--0~-------------|
|--*2--*2--*2--0~-------------|
|--*2--*2--*2--0~-------------|
Don't be lonely...


|-----------------------------|
|-----------------------------|
|-----------------------------|
|--*2--*2--*2--5~-------------|
|--*2--*2--*2--5~-------------|
|--*2--*2--*2--5~-------------|
Now I'm your only...


|----------------------------|
|----------------------------|
|----------------------------|
|--*2--*2--*2--0-------------|
|--*2--*2--*2--0-------------|
|--*2--*2--*2--0-------------|
Just stay far away from me...

Acoustic Guitar Chords

(Find Strum Patern, Its Easy)

|-------------------|
|-------------------|
|--9----7----4------|
|--9----7----4------|
|--7----5----2------|
|-------------------|

When I fadeaway from me (just stay far away from me)
Just stay far away from me (just stay far away from me)
When I fadeaway from me (just stay far away from me)
When I fadeaway from me (just stay far away from me)
When I fadeaway from me (just stay far away from me)
When I fadeaway from me (just stay far away from me)
When I fadeaway from me

When I'm not what I used to be...
|--------------------------|
|--------------------------|
|--------------------------|
|--2--2--2--2--2--2--9--9--|
|--2--2--2--2--2--2--9--9--|
|--2--2--2--2--2--2--9--9--|

|--------------------------|
|--------------------------|
|--------------------------|
|--9--5--5--5--5--5--5--5--|
|--9--5--5--5--5--5--5--5--|
|--9--5--5--5--5--5--5--5--|

|--------------------------|
|--------------------------|
|--------------------------|
|--0--0--0--0--0--0--7--7--|
|--0--0--0--0--0--0--7--7--|
|--0--0--0--0--0--0--7--7--|

|--------------------------|
|--------------------------|
|--------------------------|
|--7--4--4--4--4--4--4--4--|
|--7--4--4--4--4--4--4--4--|
|--7--4--4--4--4--4--4--4--|

Repeat This 4 Times

Outro

|-----------------------|
|-----------------------|
|-----------------------|
|--2----2--2-------9----|
|--2----2--2-------9----|
|--2----2--2-------9----|

|-----------------------|
|-----------------------|
|-----------------------|
|--9--9-------5--5------|
|--9--9-------5--5------|
|--9--9-------5--5------|
Decline...

|-----------------------|
|-----------------------|
|-----------------------|
|--0----0--0-------7----|
|--0----0--0-------7----|
|--0----0--0-------7----|

|-----------------------|
|-----------------------|
|-----------------------|
|--7--7-------4--4------|
|--7--7-------4--4------|
|--7--7-------4--4------|
More whine...

|-----------------------|
|-----------------------|
|-----------------------|
|--2----2--2-------9----|
|--2----2--2-------9----|
|--2----2--2-------9----|

|-----------------------|
|-----------------------|
|-----------------------|
|--9--9-------5--5------|
|--9--9-------5--5------|
|--9--9-------5--5------|
Deadline...

|-----------------------|
|-----------------------|
|-----------------------|
|--0----0--0-------7----|
|--0----0--0-------7----|
|--0----0--0-------7----|

|-----------------------|
|-----------------------|
|-----------------------|
|--7--7-------4--4------|
|--7--7-------4--4------|
|--7--7-------4--4------|
All mine...

Final Chord
|------------------------|
|------------------------|
|------------------------|
|--2~--------------------|
|--2~--------------------|
|--2~--------------------|
comments
We did not receive enough feedback on this tab! Please rate:
print report bad tab
1 2 3 4 5
I want to post or [tab]
guest
You may want to rate the tab now too:
select rating
Please do not post tabs as comments. Select "correction" instead!