Oops, an error
Loading. Please wait.

Pulsar Tab

version 1
version 1

Whole song

3,112 views 9 this week
no commentswrite comment
1 2 3 4 5
1 last vote to show rating
add to favorites
launch autoscroll
font size
0
reset
how to read this tab
guitar tuner
Autoscroll
slow
fast
+/-
esc
set tempo
stop
Author
Difficulty
Tuning
intermediate
D A D G B E
This song is in Drop D (D A D G B e)

[INTRO]
[Guitar 1 - Clean]
e|---------------------------|---------------------------|
B|---------------------------|---------------------------|
G|---------------------------|---------------------------|(2x)
D|---------------------------|---------------------------|
A|---10/12--\8--\5---5---5\3-|--/10/12--\8--\5-----------|
D|-0-------0---0---0---0-----|-0-------0---0-------------|

[VERSE](Building up to the CHORUS)
[Guitar 1 - Clean]
e|---------------------------|---------------------------|
B|---------------------------|---------------------------|
G|---------------------------|---------------------------|
D|---------------------------|---------------------------|
A|---10/12--\8--\5---5---5\3-|--/10/12--\8--\5--\3-------|
D|-0-------0---0---0---0-----|-0-------0---0---0---0-5/7-|
                                                     
[Guitar 2 - Distorted]                                   
e|---------5-----------------|---------------------------|
B|---------------------------|---------------------------|
G|-----7---------------------|---------------------------|
D|---------------------------|---------------------------|
A|-5-------------------------|---------------------------|
D|---------------------------|---------------------------|

e|---------------------------|---------------------------|
B|---------------------------|---------------------------|
G|---------------------------|---------------------------|
D|---------------------------|---------------------------|
A|---10/12--\8--\5---5---5\3-|--/10/12--\8--\5--\3-------|
D|-0-------0---0---0---0-----|-0-------0---0---0---0-5/7-|
                                                        
e|---------6-----------------|---------------------------|
B|---------------------------|---------------------------|
G|-----7---------------------|---------------------------|
D|---------------------------|---------------------------|
A|-5-------------------------|---------------------------|
D|---------------------------|---------------------------|

e|---------------------------|---------------------------|
B|---------------------------|---------------------------|
G|---------------------------|---------------------------|
D|---------------------------|---------------------------|
A|---10/12--\8--\5---5---5\3-|--/10/12--\8--\5--\3-------|
D|-0-------0---0---0---0-----|-0-------0---0---0---0-5/7-|
   
e|---------5-----------------|---------------------------|
B|---------------------------|---------------------------|
G|-----7---------------------|---------------------------|
D|---------------------------|---------------------------|
A|-5-------------------------|---------------------------|
D|---------------------------|---------------------------|

e|---------------------------|---------------------------|
B|---------------------------|---------------------------|
G|---------------------------|---------------------------|
D|---------------------------|---------------------------|
A|---10/12--\8--\5---5---5\3-|--/10/12--\8--\5--\3-------|
D|-0-------0---0---0---0-----|-0-------0---0---0---0-5/7-|
  
e|---------6-----------------|---------------------------|
B|---------------------------|-----------8---------------|
G|-----7---------------------|-----7---------------------|
D|---------------------------|---------------------------|
A|-5-------------------------|-5-------------------------|
D|---------------------------|---------------------------|

e|---------------------------|---------------------------|
B|---------------------------|---------------------------|
G|---------------------------|---------------------------|
D|---------------------------|---------------------------|
A|---10/12--\8--\5---5---5\3-|--/10/12--\8--\5--\3-------|
D|-0-------0---0---0---0-----|-0-------0---0---0---0-5/7-|
   
e|---------5-----------------|---------------------------|
B|---------------------------|---------------------------|
G|-----7---------------------|---------------------------|
D|---------------------------|---------------------------|
A|-5-------------------------|---------------------------|
D|---------------------------|---------------------------|

e|---------------------------|---------------------------|
B|---------------------------|---------------------------|
G|---------------------------|---------------------------|
D|---------------------------|---------------------------|
A|---10/12--\8--\5---5---5\3-|--/10/12--\8--\5--\3\------|
D|-0-------0---0---0---0-----|-0-------0---0---0---------|

[CHORUS]
[Guitar 1 - Heavy Overdrive]
e|---------------------------|----------------------------|
B|---------------------------|----------------------------|
G|---------------------------|----------------------------|
D|-0--8---6--0-10h12--10/15--|-0--8----6--0-10h12--10/15--|
A|-0--8---6--0-10h12--10/15--|-0--8----6--0-10h12--10/15--|
D|-0--8---6--0-10h12--10/15--|-0--8----6--0-10h12--10/15--|
                                                          (2x)
[Guitar 2 - Distorted]                                    
e|---------------------------|----------------------------|
B|---------------------------|----------------------------|
G|---------------------------|----------------------------|
D|-12-12-12-12-12-12-12-12b--|-12-12-12-12-12-12-12-12b---|
A|---------------------------|----------------------------|
D|---------------------------|----------------------------|


e|---------------------------|----------------------------|
B|---------------------------|----------------------------|
G|---------------------------|----------------------------|
D|-0-----1----3----1----3\---|-0-----1----3----1----3\----|
A|-0-----1----3----1----3\---|-0-----1----3----1----3\----|
D|-0-----1----3----1----3\---|-0-----1----3----1----3\----|

e|---------------------------|----------------------------|
B|---------------------------|----------------------------|
G|-12121212121213131313131313|-12121212121213131313131313-|
D|---------------------------|----------------------------|
A|---------------------------|----------------------------|
D|---------------------------|----------------------------|

e|---------------------------|----------------------------|
B|---------------------------|----------------------------|
G|---------------------------|----------------------------|
D|-0-----1----3----1----3\---|-0-----0----0---------------|
A|-0-----1----3----1----3\---|-0-----0----0---------------|
D|-0-----1----3----1----3\---|-0-----0----0---------------|

e|---------------------------|----------------------------|
B|---------------------------|----------------------------|
G|-12121212121213131313131313|----------------------------|
D|---------------------------|----------------------------|
A|---------------------------|----------------------------|
D|---------------------------|----------------------------|

[VERSE]
[Guitar 1 - Clean]
e|---------------------------|---------------------------|
B|---------------------------|---------------------------|
G|---------------------------|---------------------------|
D|---------------------------|---------------------------|
A|---10/12--\8--\5---5---5\3-|--/10/12--\8--\5--\3-------|
D|-0-------0---0---0---0-----|-0-------0---0---0---0-5/7-|
                                                    
[Guitar 2 - Distorted]                                      
e|---------5-----------------|---------------------------|
B|---------------------------|---------------------------|
G|-----7---------------------|---------------------------|
D|---------------------------|---------------------------|
A|-5-------------------------|---------------------------|
D|---------------------------|---------------------------|

e|---------------------------|---------------------------|
B|---------------------------|---------------------------|
G|---------------------------|---------------------------|
D|---------------------------|---------------------------|
A|---10/12--\8--\5---5---5\3-|--/10/12--\8--\5--\3-------|
D|-0-------0---0---0---0-----|-0-------0---0---0---0-5/7-|
  
e|---------6-----------------|---------------------------|
B|---------------------------|---------------------------|
G|-----7---------------------|---------------------------|
D|---------------------------|---------------------------|
A|-5-------------------------|---------------------------|
D|---------------------------|---------------------------|

e|---------------------------|---------------------------|
B|---------------------------|---------------------------|
G|---------------------------|---------------------------|
D|---------------------------|---------------------------|
A|---10/12--\8--\5---5---5\3-|--/10/12--\8--\5--\3-------|
D|-0-------0---0---0---0-----|-0-------0---0---0---0-5/7-|
      
e|---------5-----------------|---------------------------|
B|---------------------------|---------------------------|
G|-----7---------------------|---------------------------|
D|---------------------------|---------------------------|
A|-5-------------------------|---------------------------|
D|---------------------------|---------------------------|

e|---------------------------|---------------------------|
B|---------------------------|---------------------------|
G|---------------------------|---------------------------|
D|---------------------------|---------------------------|
A|---10/12--\8--\5---5---5\3-|---------------------------|
D|-0-------0---0---0---0-----|---------------------------|
      
e|---------6-----------------|---------------------------|
B|---------------------------|---------------------------|
G|-----7---------------------|---------------5-----------|
D|---------------------------|--X-X-7-\3--0--5---5/7-----|
A|-5-------------------------|--X-X-7-\3--0--3---5/7-----|
D|---------------------------|--X-X-7-\3--0------5/7-----|

[BRIDGE](Building up to CHORUS)
[Guitar 1 - Overdrive]                                                       
e|-------------------------|-----------------------------|
B|-------------------------|-----------------------------|
G|-------------------------|-----------------------------|         
D|-0--10--8-\7-0--10--8-\7-|-0--10h12-10h12-0--10--8-\7--|
A|-0--10--8-\7-0--10--8-\7-|-0--10h12-10h12-0--10--8-\7--|
D|-0--10--8-\7-0--10--8-\7-|-0--10h12-10h12-0--10--8-\7--|
                                                     
[Guitar 2 - Overdrive Distorted]                       
e|-------------------------|-----------------------------|
B|-------------------------|-----------------------------|
G|-------------------------|-----------------------------|
D|-10-10-10-10-10-10-10-10-|-12-12-12-12-13b-------------|
A|-------------------------|-----------------------------|
D|-------------------------|-----------------------------|

[CHORUS]
[Guitar 1 - Heavy Overdrive]
e|---------------------------|----------------------------|
B|---------------------------|----------------------------|
G|---------------------------|----------------------------|
D|-0--8---6--0-10h12--10/15--|-0--8----6--0-10h12--10/15--|
A|-0--8---6--0-10h12--10/15--|-0--8----6--0-10h12--10/15--|
D|-0--8---6--0-10h12--10/15--|-0--8----6--0-10h12--10/15--|
                                                          (2x)
[Guitar 2 - Distorted]                                   
e|---------------------------|----------------------------|
B|---------------------------|----------------------------|
G|---------------------------|----------------------------|
D|-12-12-12-12-12-12-12-12b--|-12-12-12-12-12-12-12-12b---|
A|---------------------------|----------------------------|
D|---------------------------|----------------------------|

e|---------------------------|----------------------------|
B|---------------------------|----------------------------|
G|---------------------------|----------------------------|
D|-0-----1----3----1----3\---|-0-----1----3----1----3\----|
A|-0-----1----3----1----3\---|-0-----1----3----1----3\----|
D|-0-----1----3----1----3\---|-0-----1----3----1----3\----|
                                                  
e|---------------------------|----------------------------|
B|---------------------------|----------------------------|
G|-12121212121213131313131313|-12121212121213131313131313-|
D|---------------------------|----------------------------|
A|---------------------------|----------------------------|
D|---------------------------|----------------------------|

e|---------------------------|----------------------------|
B|---------------------------|----------------------------|
G|---------------------------|----------------------------|
D|-0-----1----3----1----3\---|-0-----0----0------0--------|
A|-0-----1----3----1----3\---|-0-----0----0------0--------|
D|-0-----1----3----1----3\---|-0-----0----0------0--------|
                                                 
e|---------------------------|----------------------------|
B|---------------------------|----------------------------|
G|-12121212121213131313131313|----------------------------|
D|---------------------------|----------------------------|
A|---------------------------|----------------------------|
D|---------------------------|----------------------------|

e|---------------------------|----------------------------|
B|---------------------------|----------------------------|
G|---------------------------|----------------------------|
D|-3\----0-----0----0--------|----------------------------|
A|-3\----0-----0----0--------|----------------------------|
D|-3\----0-----0----0--------|----------------------------|

[OUTRO]
[Guitar 2 - Distorted        Let it ring then fade out.]
e|---------------------------|----------------------------|
B|---------------------------|----------------------------|
G|---------------------------|----------------------------|
D|--------------------10-----|----------------------------|
A|------5/10-12----8---------|----------------------------|
D|------0-------8------------|----------------------------|

************************************

| /  Slide up
| \  Slide down
| h  Hammer-on
| b  Bend

************************************
Suggest correction
Give kudos to tab author, rate the tab!
1 2 3 4 5
comments
print report bad tab
guest
You may want to rate the tab now too:
select rating
Wanna post a correction for this tab? Suggest correction