Oops, an error
Loading. Please wait.

Switchback Tab

version 1
version 1

Whole song

Interactive

11,999 views 18 this week
4 commentsread comments
1 2 3 4 5
x 4
add to favorites
launch autoscroll
font size
0
reset
how to read this tab
guitar tuner
Autoscroll
slow
fast
+/-
esc
set tempo
stop
Help us to improve Ultimate-Guitar.com Take our survey!
×
Author
Difficulty
Tuning
novice
C G C F A D
Drop C + rest 1 step down

Intro + Chorus:
-------------------------------------|
-------------------------------------|
-------------------------------------|   2 Times
-------------------------------------|
-------------------------------------|
-00-2-0-2-22-3-2-3-33-5-3-5-55-7-5-7-|

-------------------------------------|
-------------------------------------|
-------------------------------------|   2 Times
-00-2-0-2-22-3-2-3-33-5-3-5-55-7-5-7-|
-00-2-0-2-22-3-2-3-33-5-3-5-55-7-5-7-|
-00-2-0-2-22-3-2-3-33-5-3-5-55-7-5-7-|

Bridge:
------------------------------------|
------------------------------------|
------------------------------------|   4 Times
-0-2------------333-5---------------|
-0-2------------333-5---------------|
-0-2------------333-5---------------|

After Second Chorus something else...
Suggest correction
comments
print report bad tab
4 comments total. Showing first comments.
0 reply
celldweller454 10 Aug 07, 2007 11:07 AM

It looks ok I guess. I wish you could have gotten the entire song.

0 reply
simo9852 10 Dec 13, 2008 02:27 AM

heres the bit after the chorus "wait..how can it be too late" etc

D|----0-0-0--------0-0-0--------0-0-0------------------------
A|----5-5-5--------5-5-5--------5-5-5------------------------
F|-----------5------------5------------5---------------------
C|-2---------5--2---------5--2---------5---5-5555-7-777777---
G|-2---------3--2---------3--2---------3---5-5555-7-777777---
C|-2------------2------------2-------------5-5555-7-777777---

0 reply
simo9852 10 Dec 13, 2008 02:31 AM

main riff

D|----------------------------------------
A|----------------------------------------
F|----------------------------------------
C|-00-2-00-2-22-3-22-3-3-5-3-5-55-7-55-7--
G|-00-2-00-2-22-3-22-3-3-5-3-5-55-7-55-7--
C|-00-2-00-2-22-3-22-3-3-5-3-5-55-7-55-7--

guest
You may want to rate the tab now too:
select rating
Wanna post a correction for this tab? Suggest correction