Oops, an error
Loading. Please wait.

The Lucky One Tab

1,754 views 1 this week
1 commentread comment
1 2 3 4 5
x 5
add to favorites
launch autoscroll
font size
0
reset
how to read this tab
guitar tuner
Autoscroll
slow
fast
+/-
esc
set tempo
stop
Help us to improve Ultimate-Guitar.com Take our survey!
×
Author
Celldweller - The Lucky One
Tabbed by Alexander Sergeichuk

Tuning: Drop C


Verse 1

|-------------------|----|
|-------------------|----|
|-7-----10--12/7----|-10-|
|-7--6--10--12/7--6-|-10-|    (x8)
|-5--6--8---10/5--6-|-8--|
|----6------------6-|----|
                    | not played for the 2nd time

|---------------|
|---------------|
|-7-----10--12\-|
|-7--6--10--12\-|    (x1)
|-5--6--8---10\-|
|----6----------|


Chorus

|--------------------------------|
|--------------------------------|
|-7---7-5---5-3---3-5--10--5-5-9-|
|-7---7-5---5-3---3-5--10--5-5-9-|
|-5---5-3---3-1---1-3--8---3-3-7-|
|--------------------------------|


|-------------------------------------------------|
|-------------------------------------------------|
|-7---7-5---5----10----10-7-----------------------|
|-7---7-5---5-5--10-5--10-7-8-8-10-12-10-10-12-15-|
|-5---5-3---3-5--8--5--8--5-8-8-10-12-10-10-12-15-|
|-------------5-----5-------8-8-10-12-10-10-12-15-|


|-----------------------------------------------------------|
|-----------------------------------------------------------|
|-----------------------------------------------------------|
|-12--15--10--12--8--10--5--8-8-10-12--15--8---14---13---15-|
|-12--15--10--12--8--10--5--8-8-10-12--15--8---14---13---15-|
|-12--15--10--12--8--10--5--8-8-10-12--15--8---14---13---15-|
 (x7)    (x7)    (x7)   (x5)      (x7)   (x8) (x8) (x4) (x4)


Guitar solo along with the last part:

|------------------------------------------------------------------------|
|----------------------------------------8-8-8-8----------8-11-11-11-11--|
|-7-7-7-7----------7-10-10-10-10-7-7-7-7---------10-10-10----------------|
|---------10-10-10-------------------------------------------------------|
|------------------------------------------------------------------------|
|------------------------------------------------------------------------|


|-----------------------------------------------------------------------|
|10-10-10-10----------------------------------------8-8-8-8-10-10-10-10-|
|------------7-7-7-7----------7-10-10-10-10-7-7-7-7---------------------|
|--------------------10-10-10-------------------------------------------|
|-----------------------------------------------------------------------|
|-----------------------------------------------------------------------|


|-------------8-8-8-8-|
|-11-11-11-11---------|
|---------------------|
|---------------------|
|---------------------|
|---------------------|


Verse 2

|------------------------------------------|
|------------------------------------------|
|-7-----10--12--7-----10--12--7-----10--12-|
|-7--6--10--12--7--6--10--12--7--6--10--12-|
|-5--6--8---10--5--6--8---10--5--6--8---10-|
|----6-------------6-------------6---------|
           (x6)          (x6)          (x6)

(you can use slides like in the 1st verse; in original song some effects are used)


Chorus (see above)


Interlude

|--------------------------------------------------|
|--------------------------------------------------|
|--------------------------------------------------|
|-5-5--5--5--5-5--5--3--5-5--5--5-5-5-8-8-10-10-10-|  (x2)
|-5-5--5--5--5-5--5--3--5-5--5--5-5-5-8-8-10-10-10-|
|-5-5--5--5--5-5--5--3--5-5--5--5-5-5-8-8-10-10-10-|


Bridge


|-------|
|-10----|
|-10----|   few times during the beginning, very shortly
|-8-----|   ('I tried to push...')
|-------|
|-------|


|-----------------------------------------------------------------------|
|-----------------------------------------------------------------------|
|-----------------------------------------------------------------------|
|-----------------------------------------------------------------------|
|-----------------------------------------------------------------------|
|-5-5-5-10-8-8-8-10-7-7-7-10-8-8-8-10-10-10-3-3-3-3-3-1-1-1-1-0-0-0-0-0-|


|-------------------------------------------------|
|-------------------------------------------------|
|-------------------------------------------------|
|---------------------------------5-5-5-5-5-5-5-5-|
|---------------------------------3-3-3-3-3-3-3-3-|
|-1-1-1-1-1-1-1-1-0-0-0-0-0-0-0-0-----------------|


More strings:
|-----------------------------------------------------------------------|
|-----------------------------------------------------------------------|
|-----------------------------------------------------------------------|
|-----------------------------------------------------------------------|
|-5-5-5-10-8-8-8-10-7-7-7-10-8-8-8-10-10-10-3-3-3-3-3-1-1-1-1-0-0-0-0-0-|
|-5-5-5-10-8-8-8-10-7-7-7-10-8-8-8-10-10-10-3-3-3-3-3-1-1-1-1-0-0-0-0-0-|


|-----------------------------------------------------------------------|
|-----------------------------------------------------------------------|
|-----------------------------------------------------------------------|
|---------------------------------5-5-5-5-5-5-5-5-----------------------|
|-1-1-1-1-1-1-1-1-0-0-0-0-0-0-0-0-3-3-3-3-3-3-3-3-3-3-3-3/8-8-7-7-------|
|-1-1-1-1-1-1-1-1-0-0-0-0-0-0-0-0-----------------3-3-3-3/8-8-7-7-------|

EVEN MOAR STRINGZ!
|---------------------------------------------------------------------|
|---------------------------------------------------------------------|
|---------------------------------------------------------------------|
|-5-5-5-10-8-8-8-10-7-7-7-10-8-8-8-10-10\-3-3-3-3-3-1-1-1-1-1-0-0-0-0-|
|-5-5-5-10-8-8-8-10-7-7-7-10-8-8-8-10-10\-3-3-3-3-3-1-1-1-1-1-0-0-0-0-|
|-5-5-5-10-8-8-8-10-7-7-7-10-8-8-8-10-10\-3-3-3-3-3-1-1-1-1-1-0-0-0-0-|


|-----------------------------------------------------------------|
|-----------------------------------------------------------------|
|---------------------------------5-5-5-5-5-5-5-5-----------------|
|-1-1-1-1-1-1-1-1-0-0-0-0-0-0-0-0-5-5-5-5-5-5-5-5-3-3-3-3/8-8-7-7-|
|-1-1-1-1-1-1-1-1-0-0-0-0-0-0-0-0-3-3-3-3-3-3-3-3-3-3-3-3/8-8-7-7-|
|-1-1-1-1-1-1-1-1-0-0-0-0-0-0-0-0-----------------3-3-3-3/8-8-7-7-|


|---------------------------------------------------------------------|
|---------------------------------------------------------------------|
|---------------------------------------------------------------------|
|-5-5-5-10-8-8-8-10-7-7-7-10-8-8-8-10-10\-3-3-3-3-3-3-1-1-1-1-0-0-0-0-|
|-5-5-5-10-8-8-8-10-7-7-7-10-8-8-8-10-10\-3-3-3-3-3-3-1-1-1-1-0-0-0-0-|
|-5-5-5-10-8-8-8-10-7-7-7-10-8-8-8-10-10\-3-3-3-3-3-3-1-1-1-1-0-0-0-0-|


Outro

|----------------------------------------------------------------------|
|----------------------------------------------------------------------|
|----------------------------------------------------------------------|
|-12-12--10-10--8-8--5-5--8-10-12-12--12-12--10-10--10-10-10-10--14-14-|
|-12-12--10-10--8-8--5-5--8-10-12-12--12-12--10-10--10-10-10-10--14-14-|
|-12-12--10-10--8-8--5-5--8-10-12-12--12-12--10-10--10-10-10-10--14-14-|


|-------------|
|-------------|
|-------------|
|-15-15-15-15-|
|-15-15-15-15-|
|-15-15-15-15-|


|----------------------------------|
|----------------------------------|
|----------------------------------|
|-12--15--10--12--8--10--5--8-8-10-|   (x5)
|-12--15--10--12--8--10--5--8-8-10-|
|-12--15--10--12--8--10--5--8-8-10-|
 (x7)    (x7)    (x7)   (x5)

|-------------------------------|
|-------------------------------|
|-------------------------------|
|-12--15--10---14---13---15--12-|
|-12--15--10---14---13---15--12-|
|-12--15--10---14---13---15--12-|
 (x7)    (x8) (x8) (x4) (x4)
Suggest correction
comments
print report bad tab
1 comment total.
0 reply
dailydemon 157 Jun 02, 2013 07:30 AM

Great Tab))Great Song))

guest
You may want to rate the tab now too:
select rating
Wanna post a correction for this tab? Suggest correction