Oops, an error
Loading. Please wait.

Tragedy Tab

635 views 1 this week
no commentswrite comment
1 2 3 4 5
please rate
add to favorites
launch autoscroll
font size
0
reset
how to read this tab
guitar tuner
Tab Pro tools
  • play this tab
  • loop segment
  • change instrument
  • show fretboard
  • metronome
×
Best way to learn
"Tragedy"
Autoscroll
slow
fast
+/-
esc
set tempo
stop
Contributor
Difficulty
novice
Intro + verse:

E|-----------------|---------------------|-----------------|-----------------|
B|-----------------|---------------------|-----------------|-----------------|
G|-----------------|---------------------|-----------------|-----------------| x3
D|-----------------|---------------------|-----------------|-----------------|
A|-4-4-4-4-6-6-6-6-|-11-11-11-11-9-9-9-9-|-4-4-4-4-6-6-6-6-|-6-6-6-6-6-6-6-6-|
E|-4-4-4-4-6-6-6-6-|-11-11-11-11-9-9-9-9-|-4-4-4-4-6-6-6-6-|-6-6-6-6-6-6-6-6-|


E|---------------------|---------------------|-----------------|-----------------|
B|---------------------|---------------------|-----------------|-----------------|
G|---------------------|---------------------|-----------------|-----------------|
D|---------------------|---------------------|-----------------|-----------------|
A|-4-4-4-4-11-11-11-11-|-9-9-9-9-11-11-11-11-|-4-4-4-4-6-6-6-6-|-6-6-6-6-6-6-6-6-|
E|-4-4-4-4-11-11-11-11-|-9-9-9-9-11-11-11-11-|-4-4-4-4-6-6-6-6-|-6-6-6-6-6-6-6-6-|

PreCHS:

E|------------------|------------------|------------------|------------------|
B|------------------|------------------|------------------|------------------|
G|------------------|------------------|------------------|------------------|
D|------------------|------------------|------------------|------------------|
A|-6-6--6-6-----6-6-|-6-6--6-6-----6-6-|-2-2--2-2-----2-2-|-4-4--4-4-----4-4-|
E|-4-4--4-4-----4-4-|-4-4--4-4-----4-4-|-0-0--0-0-----0-0-|-2-2--2-2-----2-2-|


E|-----------------|-----------------|-----------------|-----------------|
B|-----------------|-----------------|-----------------|-----------------|
G|-----------------|-----------------|-----------------|-----------------|
D|-----------------|-----------------|-----------------|-----------------|
A|-6-6-6-6-6-6-6-6-|-6-6-6-6-6-6-6-6-|-9-9-9-9-9-9-9-9-|-9-9-9-9-9-9-9-9-|
E|-4-4-4-4-4-4-4-4-|-4-4-4-4-4-4-4-4-|-7-7-7-7-7-7-7-7-|-7-7-7-7-7-7-7-7-|

Chorus:

E|-----------------|-----------------|-----------------|-----------------|
B|-----------------|-----------------|-----------------|-----------------|
G|-----------------|-----------------|-----------------|-----------------|
D|-----------------|-----------------|-----------------|-----------------|
A|-6-6-6-6-6-6-6-6-|-2-2-2-2-4-4-4-4-|-6-6-6-6-6-6-6-6-|-9-9-9-9-4-4-4-4-|
E|-6-6-6-6-6-6-6-6-|-2-2-2-2-4-4-4-4-|-6-6-6-6-6-6-6-6-|-9-9-9-9-4-4-4-4-|



E|-----------------|-----------------|-----------------|-----------------|
B|-----------------|-----------------|-----------------|-----------------|
G|-----------------|-----------------|-----------------|-----------------|
D|-----------------|-----------------|-----------------|-----------------|
A|-2-2-2-2-2-2-2-2-|-6-6-6-6-4-4-4-4-|-6-6-6-6-6-6-4-2-|-----4-4---------|
E|-2-2-2-2-2-2-2-2-|-4-4-4-4-4-4-4-4-|-6-6-6-6-6-6-4-2-|-----2-4---------|


B|-----------------|-----------------|-----------------|-----------------|
G|-----------------|-----------------|-----------------|-----------------|
D|-----------------|-----------------|-----------------|-----------------|
A|-6-6-6-6-6-6-6-6-|-2-2-2-2-4-4-4-4-|-6-6-6-6-6-6-6-6-|-9-9-9-9-4-4-4-4-|
E|-6-6-6-6-6-6-6-6-|-2-2-2-2-4-4-4-4-|-6-6-6-6-6-6-6-6-|-9-9-9-9-4-4-4-4-|


E|-----------------|-----------------|-------------------|-------------------|
B|-----------------|-----------------|-------------------|-------------------|
G|-----------------|-----------------|-------------------|-------------------|
D|-----------------|-----------------|-------------------|-------------------|
A|-2-2-2-2-2-2-2-2-|-6-6-6-6-4-4-4-4-|-6-6-6-6-6-6-13-11-|-----16-13---------|
E|-2-2-2-2-2-2-2-2-|-4-4-4-4-4-4-4-4-|-6-6-6-6-6-6-11-11-|-----14-13---------|


AfterCHS:


E|-----------------|-----------------|-------------------|
B|-----------------|-----------------|-------------------|
G|-----------------|-----------------|-------------------|
D|-----------------|-----------------|-------------------|
A|-6-6-----6-6-----|-6-6-----2-2-----|-6-6---------------|
E|-6-6-----6-6-----|-6-6-----2-2-----|-6-6---------------|


Verse2 

E|-----------------|---------------------|-----------------|-----------------|
B|-----------------|---------------------|-----------------|-----------------|
G|-----------------|---------------------|-----------------|-----------------|
D|-----------------|---------------------|-----------------|-----------------|
A|-4-4-4-4-6-6-6-6-|-11-11-11-11-9-9-9-9-|-4-4-4-4-6-6-6-6-|-6-6-6-6-6-6-6-6-|
E|-4-4-4-4-6-6-6-6-|-11-11-11-11-9-9-9-9-|-4-4-4-4-6-6-6-6-|-6-6-6-6-6-6-6-6-|


E|---------------------|---------------------|-----------------|-----------------|
B|---------------------|---------------------|-----------------|-----------------|
G|---------------------|---------------------|-----------------|-----------------|
D|---------------------|---------------------|-----------------|-----------------|
A|-4-4-4-4-11-11-11-11-|-9-9-9-9-11-11-11-11-|-4-4-4-4-6-6-6-6-|-6-6-6-6-6-6-6-6-|
E|-4-4-4-4-11-11-11-11-|-9-9-9-9-11-11-11-11-|-4-4-4-4-6-6-6-6-|-6-6-6-6-6-6-6-6-|


PreCHS; Chorus;


Bridge:


E|---------------|---------------|---------------|---------------|
B|---------------|---------------|---------------|---------------|
G|---------------|---------------|---------------|---------------|
D|---------------|---------------|---------------|---------------|
A|-6----8----9---|-6----8----9---|-4----11---5---|-1----2----6---|
E|-6----8----9---|-6----8----9---|-4----9----5---|-1----2----4---|


E|---------------|---------------|---------------|---------------|
B|---------------|---------------|---------------|---------------|
G|---------------|---------------|---------------|---------------|
D|---------------|---------------|---------------|---------------|
A|-6----8----9---|-6----8----9---|-4----11---5---|-1----2--------|
E|-6----8----9---|-6----8----9---|-4----9----5---|-1----2--------|


E|---------------|---------------|---------------|---------------|
B|---------------|---------------|---------------|---------------|
G|---------------|---------------|---------------|---------------|
D|---------------|---------------|---------------|---------------|  x2
A|-6----8----9---|-6----8----9---|-4----11---5---|-1----2----6---|
E|-6----8----9---|-6----8----9---|-4----9----5---|-1----2----4---|


E|---------------|---------------|
B|---------------|---------------|
G|---------------|---------------|
D|---------------|---------------|
A|-4-------------|-8-------------|
E|-2-------------|-6-------------|

Chorus; AfterCHS.
comments
We did not receive enough feedback on this tab! Please rate:
print report bad tab
1 2 3 4 5
I want to post or [tab]
guest
You may want to rate the tab now too:
select rating
Please do not post tabs as comments. Select "correction" instead!