Oops, an error
Loading. Please wait.

Cumbia Poder bass

version 2
version 2

Whole song

75 views 1 this week
no commentswrite comment
1 2 3 4 5
3 more votes to show rating
add to favorites
×
Save as Personal and add changes to this tab that will be seen only by you. Learn more ›
×
You can save this tab as Personal to edit and correct it or add notes. All changes will be seen only by you. Learn more »
launch autoscroll
font size
0
reset
guitar tuner
edit
Autoscroll
slow
fast
+/-
esc
set tempo
stop
Ke onda raza
Ya saque toda la rola.
Ahi les va:

 0:15 
G------------------
D------------------ 
A-7--7--7--7--7--7-
E--7--7--7--7--7---

 0:22

G-9-7-----------------
D----9-7-5------------
A----------7--7--7--7-
E------------7--7--7--

 0:53
G------------------
D------------------
A-5--5--5-7--7--7--
E--5--5----7--7--7-

 1:06
G---------------------
D---------------------
A-5--5--5-5-7--7--7---
E--5--5--5----7--7--7-

 1:17

G--------9-7----------------
D----5-7--------------------
A-77-----------5-7--7--7--7-  x2
E------------5-----7--7--7--

 1:35

G-----------------------------
D-----------------------------
A-5--5--5-7--7--7--7--7--7--7-  x4
E---5--5----7--7--7--7--7--7--

 2:22

G--------9-7----------------
D----5-7--------------------
A-77-----------5-7--7--7--7-  x2
E------------5-----7--7--7--

 2:55

G-------------  ojo el slide se toca lento.
D-------------          escuchen la rola
A-7s1---------  s=slide
E-------------

 3:03
G-------7s99-
D------------
A-7---7------ x4
E---7--------

  3:13
G----------
D----------
E-7--5--7-- x2
A----------

  3:21
G-------------
D-------7-7-7-
A-5-5-5------- x4
E-------------
 
G-------
D----77- 
A-5-5--- x8
E-------

 3:40
G-------------
D-------------
A-7--7--7--7--
E--7--7--7--7-

G--------9-7----------------
D----5-7--------------------
A-77-----------5-7--7--7--7-  x2
E------------5-----7--7--7--

 Y Luego hasta el 4:16  EL SOLO DEL BAJO

G---------7s9-7-------7s99--7s99-
D---5-7-9------9-7-5-------------
A-7-----------------7-----7------ x2
E--------------------------------

G----------------------
D----------------------
A-7-7-7-7--5-5-5-5-5---
E--7-7-7-7-------------

Como trate de hacerla lo menor posible para que no
fuera mas extensa, chequen:
-Cuando termina un fragmento asi:

A-7   Osea sigues con el ritmo hasta que marque cambio
E--7

Bueno es todo. 

Correciones,dudas,comentarios,chismes
a   chuy_nomas@

TaB HeCHa por CHuY (BASS)  -Jesús Treviño-

y saludos al cbtis 36 de monclova, coahuila

            
            
Suggest correction
Creating personal tab
Creating personal tab
You can edit any tab online and save it as your Personal.

You can edit, replace or remove any tab part or add personal notes – all changes will be seen only by you.

Personal tabs can be accessed anytime from any device, even offline.
Learn more »
Give kudos to tab author, rate the tab!
1 2 3 4 5
comments
print report bad tab
guest
Wanna post a correction for this tab? Suggest correction