Oops, an error
Loading. Please wait.

Louden Tab

756 views 12 this week
no commentswrite comment
1 2 3 4 5
please rate
add to favorites
launch autoscroll
font size
0
reset
how to read this tab
guitar tuner
Autoscroll
slow
fast
+/-
esc
set tempo
stop
Help us to improve Ultimate-Guitar.com Take our survey!
×
Author
Difficulty
advanced
Tabbed by: mattmanic
Email: richoux@gmail.com

| /  slide up
| \  slide down
| h  hammer-on
| p  pull-off
| ~  vibrato
| +  harmonic
| x  Mute note

e----------------------------------------------------------|
B--------0--------0--3------0----------------------------0-|
G----0-2------0-2-------0-2---2-0--------------0------2----|
D----2-2-2----2-2-2-----2-2-2-2-2-----2---0-h2---2----2--2-|
A---------------------------------------2------------------|
E---------------------------------------------------0------|

e----------------------------------------------------------|
B--------------0-3-2h3-2-0-------0-------------------------|
G----------0h2-------------2-0-2---------------------------|
D----2---2-------------------------------------------------|
A----------------------------------------------------------|
E------0---------------------------0-----------------------|

e----------------------------------------------------------|
B--------0---0--------0---0-----0--3-2-h3-2-0--------------|
G------0---2------2---------0-2---------------2-0----------|
D-------------------2-----2-2-2-2------------------4-------|
A--------------0-------------------------------------------|
E----3------------------0-----------------------------0----|

e----------------------------------------------------------|
B--------0-0-----------------------------------------------|
G---------0-----2-0-2--0-0-----2-0-2-4---0-----------------|
D------2-----2-0-------------0-----------------------------|
A-----------------------3--3-------------------------------|
E----0-----------------------------------------------------|

e----------------------------------------------------------|
B------0-0-------------------------------------------------|
G----0--------2-0-2-4---0--0---0---------------------------|
D----------2-0---------------------------------------------|
A-------------------------3---3----------------------------|
E--0-------------------------------------------------------|

                                                      
e----------------------------------------------------------|
B------0-0----------------------------------------0--0-----|
G-------------2-0-2-4---0--0-------2-0-2-4-2-0-------------|
D----2-----2-0------------------0---------------2----------|
A-------------------------3---3----------------------------|
E--0------------------------------------------0------------|


e----------------------------------------------------------|
B-------------------------------0-----0--------------------|
G------2-0-2-4-2-0--0-0-----0-----0------------------------|
D--2-0--------------------2---2-----2----------------------|
A------------------3-3-------------------------------------|
E-----------------------0--------0-------------------------|

e----------------------------------------------------------|
B-------------0------0-------------------------------------|
G----------0------0----0-----------------------------------|
D------0-h4-4------2---------------------------------------| x4
A----2-----------------------------------------------------|
E--------------0-------------------------------------------|


e----------------------------------------------------------|
B------------------0-----0------0--------------------------|
G---------0-----------0------0----0------------------------|
D-----0-h4-4-2-2-h4-----2------2----2----------------------|
A---2---------------------------------2--------------------|
E-------------------0------0-------------------------------|

e---------0-----------5-----------0------0-----------------|
B-----1-----1-----3-----3----0-------0------0--------------|
G-------0-----------0-----0----0-------0------0------------|
D----------------------------------------------------------|
A---3---------3-5------------------------------------------|
E--------------------------0-------0-----------------------|

e---------0-----------5------------------------------------|
B-----1-----1-----3-----3--------0-------0-----------------|
G-------0-----------0-----0--0-------0---------------------|
D------------------------------2-------2-------------------|
A---3---------3-5------------------------------------------|
E--------------------------0-------0-----------------------|

e----------------------------------------------------------|
B--------------0------0------------------------------------|
G---------0-------0-----0----------------------------------|
D-----0-h4-4-2------2--------------------------------------| x3
A---2------------------------------------------------------|
E----------------0-----------------------------------------|

e----------------------------------------------------------|
B--------------0------0------0-----------------------------|
G---------0-------0-------0----0---------------------------|
D-----0-h4-4-2------2-------2----2-------------------------| 

A---2------------------------------------------------------|
E----------------0------0----------------------------------|

e----------------------------------------------------------|
B--------------0------0------------------------------------|
G---------0-------0-----0----------------------------------|
D-----0-h4-4-2------2-----2--------------------------------|
A---2------------------------------------------------------|
E----------------0-----------------------------------------|

e----------------------------------------------------------|
B--------------0------0------0-----------------------------|
G---------0-------0-------0----0---------------------------|
D-----0-h4-4-2------2-------2----2-------------------------| 

A---2------------------------------2-----------------------|
E----------------0------0----------------------------------|

e---------0-----------5------------------------------------|
B-----1-----1-----3-----3--------0-------0-----------------|
G-------0-----------0-----0--0-------0-----0---------------|
D------------------------------2-------2-----2-------------|
A---3---------3-5------------------------------------------|
E--------------------------0-------0-----------------------|

e---------0-----------5----------0--0-2-3-5-3-2-h3-2-0-----|
B-----1-----1-----3-----3------------------------------0---|
G-------0-----------0-----0---0----------------------------|
D-------------------------------3--------------------------| 
A---3---------3-5------------------------------------------|
E---------------------------0------------------------------|

e---------0-----------5------------------------------------|
B-----1-----1-----3-----3--------0-------0-----------------|
G-------0-----------0-----0--0-------0---------------------|
D------------------------------2-------2-------------------|
A---3---------3-5------------------------------------------|
E--------------------------0-------0-----------------------| 
Suggest correction
What's this?
You can suggest a correction to this tab. Community and Mods will review your correction and vote to approve or reject it.
comments
We did not receive enough feedback on this tab! Please rate:
print report bad tab
1 2 3 4 5
guest
You may want to rate the tab now too:
select rating
Please do not post tabs as comments. Select "correction" instead!