Oops, an error
Loading. Please wait.

A Dying God Coming Into Human Flesh Tab

version 2
version 2

Whole song

Interactive

1,777 views 1 this week
no commentswrite comment
1 2 3 4 5
2 more votes to show rating
add to favorites
launch autoscroll
font size
0
reset
how to read this tab
guitar tuner
Autoscroll
slow
fast
+/-
esc
set tempo
stop
Help us to improve Ultimate-Guitar.com Take our survey!
×
i have looked at every other tab for this song and there all wrong so here is th right version.

tuning: Drop Bb

verse
|------------------------------------|
|------------------------------------|
|------------------------------------|
|---------3---------------1----------|
|-------3---------------1------------|
|-5^--3-----------5---6-----------5^-|

chorus
|------------------------------|
|------------------------------|
|------------------------------|
|-1/3------------1/3------2----|
|-1/3------------1/3------2----|
|-1/3----3^-3^---1/3------2----|

outro
|-----------------------------------|
|-----------------------------------|
|-----------------------------------|
|-1/3-3-3-3---------1/3-3-3-3-3-3-2-|
|-1/3-3-3-3---------1/3-3-3-3-3-3-2-|
|-1/3-3-3-3--3^-3^--1/3-3-3-3-3-3-2-|

end with this
|-----|
|-----|
|-----|
|-1/3-|
|-1/3-|
|-1/3-|
Suggest correction
Give kudos to tab author, rate the tab!
1 2 3 4 5
comments
print report bad tab
guest
You may want to rate the tab now too:
select rating
Wanna post a correction for this tab? Suggest correction