Oops, an error
Loading. Please wait.

Beyond The North Winds Tab

version 1
version 1

Whole song

Interactive

585 views 1 this week
no commentswrite comment
1 2 3 4 5
3 more votes to show rating
add to favorites
launch autoscroll
font size
0
reset
how to read this tab
guitar tuner
Autoscroll
slow
fast
+/-
esc
set tempo
stop
Help us to improve Ultimate-Guitar.com Take our survey!
×
Author
Difficulty
novice
(Beyond The) North Winds
The Mega Therion
Celtic Frost

Standard Tune
Guitar 1 (Warrior Lead)
Guitar 2 (Warrior Rhythm)

Intro
Guitar 1&2
|--------------|
|--------------|
|--------------|x4
|-7-7-777-5-6--|
|-5-5-555-3-4--|
|--------------|

Riff A
Guitar 1&2
|-------------------|
|-------------------|
|-------------------|
|-------------------|x4
|-------3--------4--|
|-0-0-0-1--0-0-0-2--|

Verse
Guitar 1&2
|--------------------------------------|
|--------------------------------------|
|--------------------------------------|
|--------------------------------------|
|-7------------------------------------|
|-5-5-5-5-5-5-5-5-5-5-5-5-5-5-5-5-5-5--|

|--------------------------------------|
|--------------------------------------|
|--------------------------------------|
|--------------------------------------|x3
|-8\7----------------------------------|
|-6\5-5-5-5-5-5-5-5-5-5-5-5-5-5-5-5-5--|

|--------------------------------------|
|--------------------------------------|
|--------------------------------------|
|--------------------------------------|x2
|-8\7----------------------------------|
|-6\5-5-5-5-5-5-5-5-5-4-4-4-4-3-3-3-3--|

Riff B
Guitar 1&2
|--------------------|
|--------------------|
|--------------------|
|----------------5---|x4
|-------4--2-2-2-3---|
|-0-0-0-2------------|

Riff C
Guitar 1&2
|------------------------------------|
|------------------------------------|
|------------------------------------|
|-------------3/4--------------3--3--|x2
|-------------1/2--------------1--1--|
|-1-1-1-1-1-1------1-1-1-1-1-1-------|

Repeat Riff A
Repeat Verse
Repeat Riff B
Repeat Riff C

Riff D
Guitar 1&2
|--------------------------|
|--------------------------|
|--------------------------|x4
|-----4-----5-----6-7\6/7--|
|-0-0-2-0-0-3-0-0-4-5\4/5--|
|--------------------------|

First Solo (this is probably not right. but this is how i play it)
Guitar 1
|----------------------------------------------------------------------|
|---------------------------------------------866966866966866966866966-|
|----------------------------------6tr8----6---------------------------|
|-----------------------6tr8----6--------------------------------------|
|------------6tr8----6-------------------------------------------------|
|-6tr8----6------------------------------------------------------------|

|----------------------------------------------------------------------|
|-866966866966866966866966-7b-----------------------108810881088108810-|
|--------------------------------------7-6-----------------------------|
|----------------------------------7-6-----9-10~-----------------------|
|------------------------------7-6-------------------------------------|
|----------------------------------------------------------------------|

|----------------------------------------------------------------------|
|-88108810881088121010121010121010121010121010121010121010121010-12~---|
|----------------------------------------------------------------------|
|----------------------------------------------------------------------|
|----------------------------------------------------------------------|
|----------------------------------------------------------------------|

Solo Rhythm (Riff E)
Guitar 2
|-------------------------|
|-------------------------|
|-------------------------|
|---------------------5-6-|x4
|-1-1-1-1-1-1-1-1-1-1-3-4-|
|-------------------------|

Repeat Riff D



Riff F
Guitar 1&2
|-------------------------------------|
|-------------------------------------|
|-------------------------------------|
|--------------6-7---------------5\4--|x4
|-3-333-333-33-4-5--3-333-333-33-3\2--|
|-------------------------------------|


Second Solo (same with this one)
Guitar 1                                          #Scrap pick down strings
|--------------------------------------------------------------------------|
|--------------------------------------------------------------------------|
|---------7-6------------------------------------------------#-------------|
|-----7-6-----9-10~----9-7-7-10-8-8-11-9-9-12-10-10-13-11-11-xxxxxx--------|
|-7-6---------------------------------------------------------------9~~~~~-|
|--------------------------------------------------------------------------|

Dive bomb
|---------------------|
|---------------------|
|---------------------|
|---------------------|
|--*------------------|
|-2-------------------|

Solo Rhythm
Guitar 2
Repeat Riff D

Second Verse                         4th Time
|------------------------------------|----------|
|------------------------------------|----------|
|------------------------------------|----------|
|----------------------------------x4|----------|
|--------------4-2--------------4-5--|~~~~~~~~~~|
|-2-222-222-22-2-0-2-222-222-22-2-3--|~~~~~~~~~~|


Repeat Riff A
Repeat Verse
Repeat Riff B
Repeat Riff C

Ending
Guitar 1&2
|-----------------|
|-----------------|
|-----------------|
|---3-3-----------|
|---1-1---2-------|
|---------0-------|
Suggest correction
Give kudos to tab author, rate the tab!
1 2 3 4 5
comments
print report bad tab
guest
You may want to rate the tab now too:
select rating
Wanna post a correction for this tab? Suggest correction